Guitaretab - guitar tabs
Song name
# A B C D E F G H I J K L M N O P Q R S T U V W X Y Z

Mother Love Bone - Capricorn Sister tab

Capricorn Sister - Mother Love Bone


Tabbed by: Thomas Kingsley

Tuning: half a step down


Riff 1
eb|---------------|-------------------|--------------------------|
Bb|---------------|-------------------|--------------------------|
Gb|-9---9-9-9-9\0-|-9---9-9\0---9-9-8-|-6--6----------6----6-----|
Db|-7h9-9-9-7-9\0-|-7h9-9-9\0---9-9-8-|-6--6----------6----6-----|
Ab|-7---7-7-7-7\0-|-7---7-7\0---7-7-6-|-4--4------4-4----4-4-----|
Eb|-0---0-0-0-0---|-0---0-0-----0-0---|--------------------------|
                My loving fatherů             pm  . . .  . .    4x

Riff 2
eb|----------------------|  |------------------------------------|
Bb|----------------------|  |------------------------------------|
Gb|----------------------|  |------6---6------6------6-----------|
Db|-4---4\0--------------|  |------6---6------6------6-----------|
Ab|-4---4\0--------------|  |--4-4---4----------4--------4-------|
Eb|-2---2\0--------------|  |------------------------------------|
       Mother Love Bone 2x  pm . . . . .      . .    .    .

Riff 3
eb|---------------------------|  |-------------------------------|
Bb|---------------------------|  |-------------------------------|
Gb|---------------------------|  |-4--4--------------------------|
Db|-6--6----------------------|  |-4--4------------6--6----------|
Ab|-6--6----------------------|  |-2--2------------6--6----------|
Eb|-4--4----------------------|  |-----------------4--4----------|
  Got my mama in the kitchen..2x

eb|--------------------------------------------------------------|
Bb|--------------------------------------------------------------|
Gb|------------------------------------4--4--4--4-----8----------|
Db|-6--6-------------------6--6--------4--4--4--4-----8----------|
Ab|-6--6-------------------6--6--------2--2--2--2-----6----------|
Eb|-4--4-------------------4--4----------------------------------|
         I made my proclamation..
[ Tab from: http://www.guitaretab.com/m/mother-love-bone/86932.html ]
Riff 4
eb|--------------------------------------------------------------|
Bb|--------------------------------------------------------------|
Gb|--------------------6--6--6--6--4--4--4--4--------------------|
Db|-8--8--8--8---------6--6--6--6--4--4--4--4--6--6--6--6--------|
Ab|-8--8--8--8---------4--4--4--4--2--2--2--2--6--6--6--6--------|
Eb|-6--6--6--6---------------------------------4--4--4--4--------|
          Burgundy baby..

eb|--------------------------------------------------------------|
Bb|--------------------------------------------------------------|
Gb|--------------------6--6--6--6--4--4--4--4--8--8--8--8-----8--|
Db|-6--6--6--6---------6--6--6--6--4--4--4--4--8--8--8--8-----8--|
Ab|-6--6--6--6---------4--4--4--4--2--2--2--2--6--6--6--6-----6--|
Eb|-4--4--4--4---------------------------------------------------|
           Capricorn Sister..

Riff 5
eb|--------------------------------------------------------------|
Bb|--------------------------------------------------------------|
Gb|---------------------4--4--4--4--6--6--6--6--6--6--6--6-------|
Db|--6--6--6--6---------4--4--4--4--6--6--6--6--6--6--6--6-------|
Ab|--6--6--6--6---------2--2--2--2--4--4--4--4--4--4--4--4-------|
Eb|--4--4--4--4--------------------------------------------------|
              Ya ya, ya ya ya..                                 x2

eb|--------------------------------------------------------------|
Bb|--------------------------------------------------------------|
Gb|------------------4--4--4--4--6--6--6--6--8--8--8--8------8---|
Db|--6--6--6--6------4--4--4--4--6--6--6--6--8--8--8--8------8---|
Ab|--6--6--6--6------2--2--2--2--4--4--4--4--6--6--6--6------6---|
Eb|--4--4--4--4--------------------------------------------------|
                I said give it to me..

Outro
eb|--------------------|------------------------|-------------------|
Bb|--------------------|------------------------|-------------------|
Gb|-11---11-11-11-11\0-|-11---11-11\0--11-11-10-|-8--8--------8---8-|
Db|-9h11-11-11-9--11\0-|-9h11-11-11\0--11-11-10-|-8--8--------8---8-|
Ab|-9----9--9--9--9-\0-|-9----9--9-\0--9--9--8--|-6--6----6-6----6--|
Eb|--------------------|------------------------|-------------------|
 pm. . .  .. x6


| /  slide up
| \  slide down
| h  hammer-on
| p  pull-off
| ~  vibrato
| +  harmonic
| x  Mute note
Related for Capricorn Sister tab
Capricorn Sister chords by Mother Love Bone