Guitaretab - guitar tabs
Song name
# A B C D E F G H I J K L M N O P Q R S T U V W X Y Z

Mother Mother - Neighbour tab

NEIGHBOUR
MOTHER MOTHER

[INTRO]

-5---5-4---4-4---4-3--4--5---5-5--4-4--|
-5---5-4---4-5---5-4--4--5---5-5--4-4--|
-6---6-5---5-6---6-5-----6---6-6--5-5--|
-7---7-6---6-6---6-5-----7---7-7--6-6--|
-7---7-6---6-4---4-3-----7---7-7--6-6--|
-5---5-4---4-------------5---5-5--4-4--|

-4-4-4---4-4--4-4-4---4-4--4-4-4---4-4--4-4-4---|
-5-5-5---5-5--5-5-5---5-5--5-5-5---5-5--5-5-5---|
-6-6-6---6-6--6-6-6---6-6--6-6-6---6-6--6-6-6---|
-6-6-6---6-6--6-6-6---6-6--6-6-6---6-6--6-6-6---|
-4-4-4---4-4--4-4-4---4-4--4-4-4---4-4--4-4-4---|
------------------------------------------------|
[ Tab from: http://www.guitaretab.com/m/mother-mother/107005.html ]
-------------------------|
-----5-----------5-------|
---6---6-4-6---6---6-4-6-|
-------------------------|
-4-----------------------|
-------------------------|

-------------------------------------------------|
----5-----------5-----------5-----------5--------|
--6---6-4-6---6---6-4-6---6---6-4-6---6---6-4-6--| (x3)
-------------------------------------------------|
-------------------------------------------------|
-------------------------------------------------|

-4-4-4---4-4--4-4-4---4-4--4-4-4---4-4--4-4-4--|
-5-5-5---5-5--5-5-5---5-5--5-5-5---5-5--5-5-5--|
-6-6-6---6-6--6-6-6---6-6--6-6-6---6-6--6-6-6--|
-6-6-6---6-6--6-6-6---6-6--6-6-6---6-6--6-6-6--|
-4-4-4---4-4--4-4-4---4-4--4-4-4---4-4--4-4-4--|
-----------------------------------------------|
Related for Neighbour tab
Advertisement will be closed in 10 seconds