Song name
# A B C D E F G H I J K L M N O P Q R S T U V W X Y Z

Mother Mother - Train Of Thought tab

---------------------------------------------------------------------------
			     Train of Thought - Mother Mother
---------------------------------------------------------------------------
Tabbed by:Crabjaw
Email:cavanaghmatt@hotmail.com

Tuning: Drop D
 
  D  G  A7
e|x |x |0|
B|3 |x |2|
G|2 |x |0|
D|0 |5 |2|
A|0 |5 |0|
D|0 |5 |-|

Intro:                  Verse:
e|----------------------|-------------------------------------------------|
B|--3---3---3-3333------|------0-----0---------0-----0--------------------|
G|--2---2---2-2222------|---11----7-----2---2-----6-----7-----------------|
D|0-0-0-0-0-0-0000-(x4)-|-0-0-0-0-0-0-0-0-0-0-0-0-0-0-0-0-(x2)------------|
A|0-0-0-0-0-0-0000------|-------------------------------------------------|
D|0---0---0-------------|-------------------------------------------------|
                          jump on my train yeah...
e|------------------------------------------------------------------------|
B|--------0--------0--------------0--------0------------------------------|
G|---11-------7--------------------------------7--------------------------|
D|---------------------7-----7--------11----------------------------------|
A|10-10-10-10-10-10-10-10-10-10-10-10-10-10-10----------------------------|
D|------------------------------------------------------------------------|
  I know what I have...
e|------------------------------------------------------------------------|
B|-----0-----0---------0-----0--------------------------------------------|
G|--11----7-----2---2-----6-----7---11----11----11--11----11----11--------|
D|0-0-0-0-0-0-0-0-0-0-0-0-0-0-0-0------9-----9---------9-----9------------|
A|--------------------------------0-0-0-0-0-0-0-0-0-0-0-0-0-0-0-0---------|
D|------------------------------------------------------------------------|
  jump on my tain yeah...        
e|------------------------------------------------------------------------|
B|-----0-----0------------------------------------------------------------|
G|--11----7-----2---2---2---2-<<
                        
                    
Tap to rate this tab
 
# A B C D E F G H I J K L M N O P Q R S T U V W X Y Z