Song name
# A B C D E F G H I J K L M N O P Q R S T U V W X Y Z

Mother Mother - Legs Away tab

Song: Legs Away
Artist: Mother Mother
Album: Touch Up

Intro/Verse:
e|-----0-----0----0--------------------|
B|---------------------3-----3----3----|
G|--------0-----0---0-----0-----0---0--|
D|-------------------------------------|
A|---------------------------------2-3-|
E|12\0-0-0-0-0-0-0-0-3-3-3-3-3-3-3-----|

e|------------------------------|--------0----0---------0---<12>-|
B|1-----1----1----0-----0----0--|--0--------3---3--0-----<12>----|
G|---0-----0---0-----0-----0----|-----1---------------1/---------|
D|------------------------------|--------------------------------|
A|3-3-3-3-3-3-3-----------------|--------------------------------|
E|--------------3-3-3-3-2-2-2-2-|0-0-0-0-0-0-0-0-0-0-0-0---------|

Chorus:
e|------------------------------------------------------|
B|----------0------------1-------0-------1--------0-----|
G|----------1---------------0-------1-------0--------1--|
D|------5\--0--5\----4----------------------------------|
A|------7\--2--7\--2-2-3-3-3-3---------3-3-3-3----------|
E|0-3-4-5\--0--5\--0-----------0-0-0-0----------0-0-0-0-|

Outro:
e|--------------------------------------------------|
B|--------0-----------3-------6------9-------12-15--|
G|----1-----------4-----------7------10------13-16--|
D|--0---0-------0---0-------0------0-------0--------|
A|--------------------------------------------------|
E|1---------1/4---------4/7-----10------13------16--|

e|5-----4----4--3----3--2----2----------------------|
B|-------------------------1------------------------|
G|---5-----5-------5--------------------------------|
D|--------------------------------------------------|
A|0-0-0-0-0-0-0-0-0-0-0-0-0-0-----------------------|
E|-----------------------------2b-0-----------------|

The chorus needs more work but it's not too bad getting through.
feedback: cavanaghmatt@hotmail.com
Tap to rate this tab
 
# A B C D E F G H I J K L M N O P Q R S T U V W X Y Z