Song name
# A B C D E F G H I J K L M N O P Q R S T U V W X Y Z

Mother Mother - Business Man tab

 
-------------------------------------------------------------------------------
                             Business Man - Mother Mother
-------------------------------------------------------------------------------

Tabbed by: Jesse Small
E-mail: verbatim.js@gmail.com
Youtube: http://www.youtube.com/user/dreadface101

Alot of people on youtube have asked for this song to be tabbed out
so here you go! Please rate the tab! And check out my youtube as a 
thanks for the tab!

Tuning:EADGBe
 
Intro                                                 
e|-------------------------------------------------| x2
B|----------------------3-------------------4~-----|
G|-------4-----------4----------------0------------| 
D|-----5--------------------4--3--2-2--------------|
A|----------0--1--2---------------------2----------|
E|--3----------------------------------------------|


Chorus
e|-----------------------------------------------------------------------------------------|
B|--------------------------------------------------------------------------------------4b~|
G|------------------11-10--9--9--9--9--------------------------------11-10-9--9--9--9------|
D|-5--5--7--8--9--9-11-10--9--9--9--9--10-10-10-10-5--5--7--8--9--9--11-10-9--9--9--9------|
A|-5--5--7--8--9--9--9--8--7--7--7--7--10-10-10-10-5--5--7--8--9--9--9--8--7--7--7--7------|
E|-3--3--5--6--7--7--------------7--7--8--8--8--8--3--3--5--6--7--7--------------7--7------|


Verse (Rest for 5 bars)
e|-------------------|
B|----5---5---5---5--|
G|--8---8---8---8----|
D|-------------------|
A|-------------------|
E|-------------------|


Chorus
e|-------------------------------------------------------------------------------------|
B|-------------------------------------------------------------------------------------|
G|------------------11-10--9--9--9--9--------------------------------11-10-9--9--9--9--|
D|-5--5--7--8--9--9-11-10--9--9--9--9--10-10-10-10-5--5--7--8--9--9--11-10-9--9--9--9--|
A|-5--5--7--8--9--9--9--8--7--7--7--7--10-10-10-10-5--5--7--8--9--9--9--8--7--7--7--7--|
E|-3--3--5--6--7--7--------------7--7--8--8--8--8--3--3--5--6--7--7--------------7--7--|

e|-----------------------------------------------------------------------------------------|
B|-----------------------------------------------------------------------------------------|
G|----------------------------------11-10-9--9--9--9---------------------------------------|
D|-10-10-10-10-5--5--7--7--8--9--9--11-10-9--9--9--9--10-10-10-10-10-10-10-10-10-10-10-10--|
A|-10-10-10-10-5--5--7--7--8--9--9--9--8--7--7--7--7--10-10-10-10-10-10-10-10-10-10-10-10--|
E|-8--8--8--8--3--3--5--5--6--7--7--------------7--7--8--8--8--8--8--8--8--8--8--8--8--8---|


Pre-Verse                                                 
e|-------------------------------------------------| 
B|----------------------3-------------------4~-----|
G|-------4-----------4----------------0------------| 
D|-----5--------------------4--3--2-2--------------|
A|----------0--1--2---------------------2----------|
E|--3----------------------------------------------|


Verse (Rest for 5 bars)
e|-------------------|
B|----5---5---5---5--|
G|--8---8---8---8----|
D|-------------------|
A|-------------------|
E|-------------------|


Chorus 
e|-------------------------------------------------------------------------------------|
B|-------------------------------------------------------------------------------------|
G|------------------11-10--9--9--9--9--------------------------------11-10-9--9--9--9--|
D|-5--5--7--8--9--9-11-10--9--9--9--9--10-10-10-10-5--5--7--8--9--9--11-10-9--9--9--9--|
A|-5--5--7--8--9--9--9--8--7--7--7--7--10-10-10-10-5--5--7--8--9--9--9--8--7--7--7--7--|
E|-3--3--5--6--7--7--------------7--7--8--8--8--8--3--3--5--6--7--7--------------7--7--|

e|-----------------------------------------------------------------------------------------|
B|-----------------------------------------------------------------------------------------|
G|----------------------------------11-10-9--9--9--9---------------------------------------|
D|-10-10-10-10-5--5--7--7--8--9--9--11-10-9--9--9--9--10-10-10-10-10-10-10-10-10-10-10-10--|
A|-10-10-10-10-5--5--7--7--8--9--9--9--8--7--7--7--7--10-10-10-10-10-10-10-10-10-10-10-10--|
E|-8--8--8--8--3--3--5--5--6--7--7--------------7--7--8--8--8--8--8--8--8--8--8--8--8--8---|


Bridge                  pm. ->
e|---------------------------------------------------------------------------------------|
B|---------------------------------------------------------------------------------------|
G|----------------------------------------------5-5-5-5-------------------------5-5-5-5--|
D|-5-5--5-5---5-5--5-5--5-5-5-5-4-4-4-4-2-2-2-2-5-5-5-5-5-5-5-5-4-4-4-4-2-2-2-2-5-5-5-5--|
A|-5-5--5-5---5-5--5-5--5-5-5-5-4-4-4-4-2-2-2-2-3-3-3-3-5-5-5-5-4-4-4-4-2-2-2-2-3-3-3-3--|
E|-3-3--3-3---3-3--3-3--3-3-3-3-2-2-2-2-0-0-0-0---------3-3-3-3-2-2-2-2-0-0-0-0----------|
  
no palm mute
e|------------------------------------------------------------------|
B|------------------------------------------------------------------|
G|-------------------------5-5-5-5-------------------------5-5-5-5--|
D|-5-5-5-5-4-4-4-4-2-2-2-2-5-5-5-5-5-5-5-5-4-4-4-4-2-2-2-2-5-5-5-5--|
A|-5-5-5-5-4-4-4-4-2-2-2-2-3-3-3-3-5-5-5-5-4-4-4-4-2-2-2-2-3-3-3-3--|
E|-3-3-3-3-2-2-2-2-0-0-0-0---------3-3-3-3-2-2-2-2-0-0-0-0----------|


Chorus
e|-------------------------------------------------------------------------------------|
B|-------------------------------------------------------------------------------------|
G|------------------11-10--9--9--9--9--------------------------------11-10-9--9--9--9--|
D|-5--5--7--8--9--9-11-10--9--9--9--9--10-10-10-10-5--5--7--8--9--9--11-10-9--9--9--9--|
A|-5--5--7--8--9--9--9--8--7--7--7--7--10-10-10-10-5--5--7--8--9--9--9--8--7--7--7--7--|
E|-3--3--5--6--7--7--------------7--7--8--8--8--8--3--3--5--6--7--7--------------7--7--|

e|--------------------------------------------------------------------------------------|
B|--------------------------------------------------------------------------------------|
G|-------------------------------11-10-9--9--9--9---------------------------------------|
D|-10-10-10-10-x--x--7--8--9--9--11-10-9--9--9--9--10-10-10-10-10-10-10-10-10-10-10-10--|
A|-10-10-10-10-x--x--7--8--9--9--9--8--7--7--7--7--10-10-10-10-10-10-10-10-10-10-10-10--|
E|-8--8--8--8--x--x--5--6--7--7--------------7--7--8--8--8--8--8--8--8--8--8--8--8--8---|

Ending                                                
e|-------------------------------------------------| 
B|----------------------3-------------------4~-----|
G|-------4-----------4----------------0------------| 
D|-----5--------------------4--3--2-2--------------|
A|----------0--1--2---------------------2----------|
E|--3----------------------------------------------|

************************************

| /   slide up
| \   slide down
| h   hammer-on
| p   pull-off
| ~   vibrato
| +   harmonic
| x   Mute note
| b   Bend
| pb  Pre-bend
| br  Bend release
| pbr Pre-bend release
| brb Bend release bend

************************************
Tap to rate this tab
# A B C D E F G H I J K L M N O P Q R S T U V W X Y Z