Song name
# A B C D E F G H I J K L M N O P Q R S T U V W X Y Z

Mother Mother - Neighbour tab

intro/verse
| /   slide up
| \   slide down
| h   hammer-on
| p   pull-off
| ~   vibrato
| +   harmonic
| x   Mute note
| b   Bend
| pb  Pre-bend
| br  Bend release
| pbr Pre-bend release
| brb Bend release bend

e|-----------------------------------------4----------------------------------|
B|-----5----5-----5----5-----5----5---7-------5----5---5----5--5--------------|
G|-----6----6-----6----6-----6----6---6-------6----6---6----6--6--------------|
D|----------------------------------------------------------------------------|
A|----------------------------4----4------------------------------------------|
E|-----5----5-----4----4---------------4-------4----5---5----4--4-------------|
       C#m
e|-----------------------------------------------------------------------------|
B|---5---5--5---x--x--x--x--5--5--x--x--x--x--5--5--x--x--x--x--5--5-----------|
G|---6---6--6---x--x--x--x--6--6--x--x--x--x--6--6--x--x--x--x--6--6-----------|
D|---6---6--6---x--x--x--x--6--6--x--x--x--x--6--6--x--x--x--x--6--6-----------|
A|---4---4--4---x--x--x--x--4--4--x--x--x--x--4--4--x--x--x--x--4--4-----------|
E|-----------------------------------------------------------------------------|
                                                                                                x4
e|----------------------------------------------------------------------------------|
B|-------------5p0--------------5p0-----------------5p0----------------5p0----------|
G|---------6---------6------6-----------6-------6-----------6------6------------6---|
D|----------------------------------------------------------------------------------|
A|------------------------------------------4---4---4----4--------------------------|
E|-----5---5---5---5----4---4---4-----4------------------------4---4---4-----4------|
Tap to rate this tab
 
# A B C D E F G H I J K L M N O P Q R S T U V W X Y Z