Song name
# A B C D E F G H I J K L M N O P Q R S T U V W X Y Z

Mother Mother - Legs Away chords

Highlighted       Show chord diagrams
The other chords for this song were pretty close, here is my version which sounds much closer

Mother Mother - Legs Away - Touch Up
Transcribed by Josh M.

All the chords used are standard issue but
the E7 in the break is:  
e 0     The E7 during the chorus:  e 0
B 3                                B 0
G 1                                G 1
D 2                                D 0
A 2                                A 2
E 0                                E 0

Break:
  E          E7     E
e|--------0----0---------0---<12>-|
B|--0--------3---3--0-----<12>----|
G|-----1---------------1/---------|
D|--------------------------------|
A|--------------------------------|
E|0-0-0-0-0-0-0-0-0-0-0-0---------|

Intro:
E- G C G G/F#

E-
I got lost about an hour ago
G
I sailed past that fork in the road
        C               G             G/F#
and now here I stand, a stranger in a foreign land
E-
an empty barn and a weather vein
G
a picket fence that's seen it's day
     C                     G                 G/F#    
oh I sit to stay, 'cause I don't got much to do today

(Break)  E  E7  E


E-
I go down to the local store
G
I caught a glance from the local whore
         C                   G                    G/F#
that she threw my way, and I still got nothing to do today
E-
I carry on down the street
G                                      C
I'm looking for a place to eat, but my belly's so full
     G                    G/F#  
With all these things i'm hoping for
(Break) E     E7   E
        Whores

A-7                E7
and i'm wishing my legs away

A-7               E5 B5  
Oh i'm wishing my le-egs
 C  E7   C  E7
Awaaay   Oo-oh  
A-7                      E7
Cos they're taking me to nowhere safe

A-7                     E5 B5    C  E7  C  E7
Oh they're taking me to no where safe 

repeat intro

E-
 An old man in a pickup truck
G
  Says, "son are you out of luck?"
      C
And I nod my hard head
         G                   G/F#
I say my day is spent and my spirit's dead
E-
He says, "come on now take a ride
G
You sit yourself in the passenger side
         C
and I'll go your way
      G                 G/F#
cuz I don't got much to do today"

A-7                E7
and i'm wishing my legs away

A-7               E5 B5  
Oh i'm wishing my le-egs
 C  E7   C  E7
Awaaay   Oo-oh  
A-7                      E7
Cos they're taking me to nowhere safe

A-7                     E5 B5    C  E7  C  E7
Oh they're taking me to no where safe 

Outro:
e|--------------------------------------------------|
B|--------0-----------3-------6------9-------12-15--|
G|----1-----------4-----------7------10------13-16--|
D|--0---0-------0---0-------0------0-------0--------|
A|--------------------------------------------------|
E|1---------1/4---------4/7-----10------13------16--|

e|5-----4----4--3----3--2----2----------------------|
B|-------------------------1------------------------|
G|---5-----5-------5--------------------------------|
D|--------------------------------------------------|
A|0-0-0-0-0-0-0-0-0-0-0-0-0-0-----------------------|
E|-----------------------------2b-0-----------------|
Tap to rate this tab
# A B C D E F G H I J K L M N O P Q R S T U V W X Y Z