Song name
# A B C D E F G H I J K L M N O P Q R S T U V W X Y Z

Mother Mother - Bit By Bit tab

The first tab is great, but it's lacking on the solo:

Standard tuning

h-hammer on
b-bend

Here's the little thing after the second chorus:

e----------------------------------------------------------------|
B-13-13-13h12h13h12-13-12----13-13-13h12h13h12-13-14-14b---------|
G----------------------------------------------------------------|
D----------------------------------------------------------------|
A----------------------------------------------------------------|
E----------------------------------------------------------------|

And the solo (for the first bit play each note several times):

e-13---------------------------13--15b------------|
B-----15--------------------15--------------------|
G---------15------------15------------------------|
D-------------15-14-15----------------------------|
A-------------------------------------------------|
E-------------------------------------------------|

e-15b16b15---13----13----13-15--15b16b15---13----13----13-15--------|
B----------------15----15-----------------------15----15------------|
G-------------------------------------------------------------------|
D-------------------------------------------------------------------|
A-------------------------------------------------------------------|
E-------------------------------------------------------------------|

e-15b16b15---13----13----13----------------------------------------------------------|
B----------------15----15----17------17-16------16-15-----15-14-----14-13------------|
G---------------------------------17---------16---------15--------14--------14-12----|
D------------------------------------------------------------------------------------|
A------------------------------------------------------------------------------------|
E------------------------------------------------------------------------------------|

That's the gist of it anyway. Enjoy!
Tap to rate this tab
 
# A B C D E F G H I J K L M N O P Q R S T U V W X Y Z