Song name
# A B C D E F G H I J K L M N O P Q R S T U V W X Y Z

Mother Tongue - Crmbl tab

Mother Tongue
"CRMBL"

Standard Tuning
2 Guitars

h - hammer on
p - pull off
b - bend string up
r - release bend
/ - slide up
- slide down
~ - vibrato

Actually a pretty easy song to play, but it's so good!
Below are the main riffs, no solos etc. but that should
get you started.

INTRO / INTERLUDE (close but no 100%)
E--------------------------------------------------------------|
B----5------5-------5------5-------5-----5-------5-----5-------|
G------7------7-------7------7-------7-----7-------7-----7-----|
D--0------0-----0-6------6-----6-5-----5-----5-7-----7-----7---|
A--------------------------------------------------------------|
E--------------------------------------------------------------|


MAIN RIFF
E---------------------------------------|
B---------------------------------------|
G---------------------------------------|
D---------------------------------------|
A-----------9h7-9~----------------------|
E----0---0-------------3--5p3-5~--------|
"It was the evolution of a city..."

    G   A  Bb   C
E---------------------------------------|
B---------------------------------------|
G---4---6---7---10----------------------|
D---5---7---8---11---- -> MAIN RIFF-----|
A---5---7---8---11---- -> MAIN RIFF-----|
E---3---5---6---9-----------------------|
"All things must...      CRMBL"

BREAK
(comes straight after "In the depths of hell")
E---------------------------------------|
B---------------------------------------|
G---------------------------------------|
D----------------------- -> MAIN RIFF---|
A-------------5--------- -> MAIN RIFF---|
E----5--3-5-7---5--0--------------------|
Tap to rate this tab
# A B C D E F G H I J K L M N O P Q R S T U V W X Y Z