Guitaretab - guitar tabs
Song name
# A B C D E F G H I J K L M N O P Q R S T U V W X Y Z

Motion City Soundtrack - The Futre Freaks Me Out tab

someone else made it but i fixed up the fills.


Intro 
e|--6---4---3---1------------------------------------------------------------| 
B|--8---4---5---3------------------------------------------------------------| 
G|--8---5---5---3------------------------------------------------------------| 
D|--8---6---5---3------------------------------------------------------------| 
A|--6---6---3---1------------------------------------------------------------| 
E|------4--------------------------------------------------------------------| 

Fill 
e|-3--------------3----------------3----------6-6---3------------------------|
B|--3-4-3-1-----11-3-4-3-1----------3-4-3-1----------3-4-3-1-1-7-7-7-77-7-7-|
G|----------3-1-----------3-1-0--------------3-3-3---------------------------|
D|-----------------------------4-3-------------------------------------------|
A|---------------------------------------------------------------------------| 
E|---------------------------------------------------------------------------| 

Verse 
e|---------------------------------------------------------------------------| 
B|---------------------------------------------------------------------------| 
G|---------------------------------------------------------------------------| 
D|--8-(16x)--5-(12x)--3-(2x)-------------------------------------------------| 
A|--6--------3--------1------------------------------------------------------| 
E|---------------------------------------------------------------------------| 
[ Tab from: http://www.guitaretab.com/m/motion-city-soundtrack/105008.html ]
Prechorus, verse in background 
e|---3------3--------------------3-------------3-----------------------------| 
B|-----3-4----3-4-3-1--0-0-0-------3-4-3h4p3h4---3-4-3\1-1-11-11-11-11-11-11-|
G|---------------------------3-3---------------------------------------------| 
D|---------------------------------------------------------------------------| 
A|---------------------------------------------------------------------------| 
E|---------------------------------------------------------------------------| 

Chorus 
e|---------------------------------------------------------------------------| 
B|---------------------------------------------------------------------------| 
G|--8-------5---3------------------------------------------------------------| 
D|--8---6---5---3------------------------------------------------------------| 
A|--6---6---3---1------------------------------------------------------------| 
E|------4--------------------------------------------------------------------| 

Bridge
e|---------------------------------------------------------------------------| 
B|--8---11-13-8----4----4-8----6---6---999-888---66---8---11-----------------| 
G|--Bet-ty-I--need-you--I-miss-you-I'm-so--alone-with-out-you----------------| 
D|---------------------------------------------------------------------------| 
A|---------------------------------------------------------------------------| 
E|---------------------------------------------------------------------------| 

e|---------------------------------------------------------------------------| 
B|-13-8----6--4--6---8----6----4----6- 999------888---66---------------------| 
G|-to-call-up-on-the-week-ends-with-my-cellular-phone-oh---------------------| 
D|---------------------------------------------------------------------------| 
A|---------------------------------------------------------------------------| 
E|---------------------------------------------------------------------------| 

"Aw *** it. I'm on fire..." 
e|---------| 
Order: 
Intro 
Fill 
Verse 
Prechorus 
Chorus 
Verse 
Prechorus 
Chorus 
Bridge 
"Aw *** it" 
Chorus till end
  

B|---------| 
G|----5-3--| 
D|--6-5-3--| 
A|--6-3-1--| 
E|--4------| 
Related for The Futre Freaks Me Out tab