Song name
# A B C D E F G H I J K L M N O P Q R S T U V W X Y Z

Motion City Soundtrack - Feels Like Rain tab

Intro     (00:06-00:18)
e|--------------------|                  |---------|
B|---5-5--5--4-4--4---| play four times  |---------|
G|----4-4-----4-4-----|                  |---------|
D|-------4-------6----|                  |--9-9----|
A|-7------------------|                  |--9-9----|
E|----------4---------|                  |--7-7----|

 Verse    (00:18-00:42)
e|--------------------------------------------------|
B|--------------------------------------------------| play twice
G|-9-----------9-----------9------------------------|
D|-9(x8)-6-----9(x8)-6-----9(x8)-6-----9------------|
A|-7-----6(x8)-7-----6(x8)-7-----6(x8)-9(x16)-------|
E|-------4-----------4-----------4-----7------------|
 
 Chorus  (00:42-00:51)
e|-0--4--2-------|
B|-0--4--2-------| play twice
G|-2--4--3(x8)---|
D|-2--4--4-------|
A|-1--2--4-------|
E|-0-----2-------|

 Post Chorus (00:51-00:55)
e|----------------|
B|----------------|
G|-9~---9~--------|
D|-9~---9~--------|
A|-7~---6~--------|
E|----------------|

 Interlude  (00:55-1:18)
e|--------------------------|                  |------|
B|--------------------------| play three times |------| repeat these two parts
G|-9-9-9-9------------------|                  |------| twice
D|-9-9-9-9------------------|                  |-9~---|
A|-7-7-7-7-6-6-6-6-4-4-4----|                  |-9~---|
E|--------------------7-----|                  |-7~---|

 Verse two   (1:18-1:43)
e|--------------------------------------------------|
B|--------------------------------------------------| play twice
G|-9-----------9-----------9------------------------|
D|-9(x8)-6-----9(x8)-6-----9(x8)-6-----9------------|
A|-7-----6(x8)-7-----6(x8)-7-----6(x8)-9(x16)-------|
E|-------4-----------4-----------4-----7------------|

 Chorus   (1:43-2:04)
e|-0--4--2-------|
B|-0--4--2-------| play seven times
G|-2--4--3(x8)---|
D|-2--4--4-------|
A|-1--2--4-------|
E|-0-----2-------|

 Post Chorus (2:05-2:07)
e|----------------|
B|----------------|
G|-9~---9~--------|
D|-9~---9~--------|
A|-7~---6~--------|
E|----------------|


guitar out (2:07-2:19)


 Second interlude (2:19-2:44)
e|--------------------------------------|
B|--------------------------------------| play eight times
G|-9------------------------------------|
D|-9(x8palm-muted)-6--------------------|
A|-7---------------6(x8palm-muted)------|
E|-----------------4--------------------|

 Chorus  (2:44-3:17)
e|-0--4--2-------|
B|-0--4--2-------| play eleven times
G|-2--4--3(x8)---|
D|-2--4--4-------|
A|-1--2--4-------|
E|-0-----2-------|

 Outro
e|--------------------|                 
B|---5-5--5--4-4--4---| play four times
G|----4-4-----4-4-----|               
D|-------4-------6----|              
A|-7------------------|                
E|----------4---------|              


Tap to rate this tab
# A B C D E F G H I J K L M N O P Q R S T U V W X Y Z