Song name
# A B C D E F G H I J K L M N O P Q R S T U V W X Y Z

Motion City Soundtrack - The Weakends tab

-------------------------------------------------------------------------------
			    The Weakends - Motion City Soundtrack
-------------------------------------------------------------------------------
Tabbed by: Iplayasonoran
Email:edwardcrews07@hotmail.com

This is how Justin Pierre played it here:

http://www.motioncitysoundtrack.com/news/justin-teaches-you-play-guitar-mtvs-replay

Tuning: Standard

e|---------------------------------------------------------------------------|
B|--------------------------10-7-----8-5-------------------------------------|
G|---11/9/11------11/9-------------------8-6---------------------------------|
D|-------------------------------------------7/9--7-4------------------------|
A|-----------7/9--------5/7------5/7-----------------------------------------|
E|---------------------------------------------------------------------------|
                                                          x4

This is the the part of the song that Justin Pierre plays. I haven't figured out the 
guitar yet.
Tap to rate this tab
 
# A B C D E F G H I J K L M N O P Q R S T U V W X Y Z