Song name
# A B C D E F G H I J K L M N O P Q R S T U V W X Y Z

Motion City Soundtrack - A Lifeless Ordinary Need A Little Help tab

Artist: Motion City Soundtrack
Song: A Lifeless Ordinary (Need a Little Help)
Album: My Dinosaur Life

eb|-------------------------------------------------------------------|
Bb|-------------------------------------------------------------------|
Gb|--9--9--9--9-/-1818181818181818-13--13--13--13-/-1111111111111111--|
Db|--x--x--x--x-/-x-x-x-x-x-x-x-x--x---x---x---x--/-x-x-x-x-x-x-x-x---|x8
Ab|--7--7--7--7-/-1616161616161616-11--11--11--11-/-9-9-9-9-9-9-9-9---|
Eb|-------------------------------------------------------------------|

eb|---------------------|
Bb|---------------------|
Gb|--9~---8888-11111111-|
Db|--x~---xxxx-x-x-x-x--|
Ab|--7~---6666-9-9-9-9--|
Eb|---------------------|

eb|---------------------------------------|  -----------|
Bb|---------------------------------------|  -----------|
Gb|------4-4-6666-2222------4444-22222222-|  -----------|
Db|--2-2-4-4-6666-2222-2222-4444-22222222-|x2-6666-9999-|
Ab|--2-2-2-2-4444-0000-2222-2222-00000000-|  -6666-9999-|
Eb|--0-0---------------0000---------------|  -4444-7777-|

eb|-------------------------------------------------------------|
Bb|-------------------------------------------------------------|
Gb|--9--9-/-1818181818181818-13--13--13--13-/-1111111111111111--|
Db|--x--x-/-x-x-x-x-x-x-x-x--x---x---x---x--/-x-x-x-x-x-x-x-x---|
Ab|--7--7-/-1616161616161616-11--11--11--11-/-9-9-9-9-9-9-9-9---|
Eb|-------------------------------------------------------------|

eb|-------------------------------------------------------------------|
Bb|-------------------------------------------------------------------|
Gb|--9--9--9--9-/-1818181818181818-13--13--13--13-/-1111111111111111--|
Db|--x--x--x--x-/-x-x-x-x-x-x-x-x--x---x---x---x--/-x-x-x-x-x-x-x-x---|x5
Ab|--7--7--7--7-/-1616161616161616-11--11--11--11-/-9-9-9-9-9-9-9-9---|
Eb|-------------------------------------------------------------------|

eb|---------------------|
Bb|---------------------|
Gb|--9~---8888-11111111-|
Db|--x~---xxxx-x-x-x-x--|
Ab|--7~---6666-9-9-9-9--|
Eb|---------------------|

eb|---------------------------------------|  -----------|
Bb|---------------------------------------|  -----------|
Gb|------4-4-6666-2222------4444-22222222-|  -----------|
Db|--2-2-4-4-6666-2222-2222-4444-22222222-|x2-6666-9999-|
Ab|--2-2-2-2-4444-0000-2222-2222-00000000-|  -6666-9999-|
Eb|--0-0---------------0000---------------|  -4444-7777-|

eb|--44----44----77----77----44----44-------44-------|
Bb|-----55----55----99----99----55----55----------77-|
Gb|--------------------------------------44----44----|
Db|--------------------------------------------------|x4
Ab|--------------------------------------------------|
Eb|--------------------------------------------------|

eb|-------------------------------------------------------|
Bb|-------------------------------------------------------|
Gb|------9-------4--------6-------2-------9-------4---2~--|
Db|----9---9---4---4----6---6---2---2---9---9---4---4-2~--|
Ab|--7-------2--------4-------0-------7-------2-------0~--|
Eb|-------------------------------------------------------|

eb|---------------------------------------|  
Bb|---------------------------------------|  
Gb|------4-4-6666-2222------4444-22222222-|  
Db|--2-2-4-4-6666-2222-2222-4444-22222222-|
Ab|--2-2-2-2-4444-0000-2222-2222-00000000-|  
Eb|--0-0---------------0000---------------|

eb|------------------------------------------------------------------|  
Bb|------------------------------------------------------------------|  
Gb|-------4444-6666-2222------4444----44-2222-99------------44-2222--|  
Db|--2222-4444-6666-2222-2222-4444-22-44-2222-99-66-7777-22-44-2222--|
Ab|--2222-2222-4444-0000-2222-2222-22-22-0000-77-66-7777-22-22-0000--|  
Eb|--0000----------------0000------00------------44-5555-00----------|

eb|-------------------------|
Bb|-------------------------|
Gb|-------------------------|
Db|--66666666-99999999-2~---|
Ab|--66666666-99999999-2~---|
Eb|--44444444-77777777-0~---|


 	Fact. Bears eat beets. Bears. Beets. Battlestar Galactica.
Tap to rate this tab
 
# A B C D E F G H I J K L M N O P Q R S T U V W X Y Z