Song name
# A B C D E F G H I J K L M N O P Q R S T U V W X Y Z

Motion City Soundtrack - Disappear Acoustic tab

This is my tab of the alternative version of Disappear, which appears (haha)
on the Deluxe Edition of Motion City's My Dinosaur Life. I based it on the
other tab available, which didn't seem right to me, and is based on the
regular version of the song anyway. It's also my first shot at tabbing
something, and have just started playing guitar, so feel free to make
corrections if I've made a mistake. The only thing I'm not entirely solid on
is the second part of the bridge, which Matt Taylor plays an ascending bass
line over, so it's hard to match up. oh, and for the final chorus, just
strum once and let it ring for the first third. enjoy!


Verses:

E:--------------------------------------------------|
B:--------------------------------------------------|
G:---3---3---3---3---3---3---3---3---3---3---3---3--|
D:--------------------------------------------------|
A:-1---1---1---1---3---3---3---3---4---4---4---4----|
E:--------------------------------------------------|

E:---------------------|
B:---------------------|
G:---3---3-------------|
D:------------6---6----| 
A:-6---6---------------|
E:----------4---4------|

Chorus:

E:---------------------------------------------------|
B:---------------------------------------------------|
G:------------------6-6-6-6-6-6-6-6--8-8-8-8-8-8-8-8-|
D:-4-4-4-4-4-4-4-4--4-4-4-4-4-4-4-4--8-8-8-8-8-8-8-8-|
A:-4-4-4-4-4-4-4-4--4-4-4-4-4-4-4-4--6-6-6-6-6-6-6-6-|
E:-2-2-2-2-2-2-2-2-----------------------------------|

E:---------------------------|
B:---------------------------|
G:-11-11-11-11--13-13-13-13--|
D:-11-11-11-11--13-13-13-13--|
A:-9--9--9--9---11-11-11-11--|
E:---------------------------|

Bridge:

E:-------------------------------------------------|
B:-------------------------------------------------|
G:---8-8-8-8-8-----8-8-8-8-8-----8-8-8-8-8---------|
D:---8-8-8-8-8--6--8-8-8-8-8--6--8-8-8-8-8--6------|
A:---6-6-6-6-6--6--8-8-8-8-8--6--6-6-6-6-6--6------|
E:--------------4-------------4-------------4------|

E:-----------------|
B:-----------------|
G:-----------------|
D:--3-3-3-3-3--6---|
A:--3-3-3-3-3--6---|
E:--1-1-1-1-1--6---|

and then:

E:------------------------------------------|
B:------------------------------------------|
G:------------------------------------------|
D:--8-8-8--6-6-6--4-4-4--3-3-3-3--x--6-6-6--|
A:--8-8-8--6-6-6--4-4-4--3-3-3-3--x--6-6-6--|
E:--6-6-6--4-4-4--2-2-2--1-1-1-1--x--4-4-4--|


Verse 1:

	To the deep end, to the heart line
	Hold it straight together, man
	Hold it straight together, if you can
	Little fevers wrapped in dedication
	All strung out on novelty
	Collapse yourself and try to comprehend
	An angry island, a bitter bee sting
	Severing each artery
	To free the self and fix the in-betweens
	It's isolation, mark the earth around you
	Guess who's on the waiting list?
	I'll let you in on something secret

Chorus:

	I can disappear
	Any time I want to, time I feel you
	Shovel through my skin
	I am with you till the end

Verse 2:

	First you breathe out, then you have to breathe in
	Lash yourself repeatedly
	Until it sticks, until it sticks
	Under the eyelids, carry on cadaver
	Festering interiors
	All hollow breach and vapor silhouette
	Need medication, more medication
	Coursing through your interstates
	All mad and great, confused and counterfeit
	Kamikaze, sear the blood inside me
	Guess who's got it figured out?
	I'll let you in on something secret

Chorus:

	I can disappear
	Anytime I want to, time I feel you
	Shovel through my skin
	I am with you till the end
	
	And I can decompose
	When it suits me, I accelerate it
	Wicked on all fours,
	I surrender to the storm

Bridge:

	You'll never know how it feels
	You'll never know how it feels

and then:

	Can you feel it?
	Can you feel it?

Final Chorus:

	I can disappear
	Anytime I want to, time I feel you
	Shovel through my skin
	I am with you till the end
	
	And I can decompose
	When it suits me, I accelerate it
	Wicked on all fours,
	I surrender to the storm

	And I can disappear
	Anytime I want to, time I feel you
	Shovel through my skin
	I am with you till the end
	I am with you till

Tap to rate this tab
# A B C D E F G H I J K L M N O P Q R S T U V W X Y Z