Song name
# A B C D E F G H I J K L M N O P Q R S T U V W X Y Z

Motion City Soundtrack - Stand Too Close tab

|---------------------------|
|---------------------------|
|---------------8-8xx8-8----|
|---8-8---10-10-8-8xx8-8----|
|---8-8---10-10-6-6xx6-6----|
|---6-6---8--8--------------|
Verse1


|-------------------------------|
|-------------------------------|
|---------------8-8-8-8-8-8-8-8-|
|---5-5---3-3---8-8-8-8-8-8-8-8-|
|---5-5---3-3---6-6-6-6-6-6-6-6-|
|---3-3---1-1-------------------|
Verse2
Tap to rate this tab
# A B C D E F G H I J K L M N O P Q R S T U V W X Y Z