Song name
# A B C D E F G H I J K L M N O P Q R S T U V W X Y Z

Motion City Soundtrack - Even If It Kills Me tab

Motion City Soundtrack
Even If It Kills Me

Intro
|--------------------------|--------------------------| 
|--------3-----------3-----|--------3-----------3-----| 
|-----0-----0-----0-----0--|-----0-----0-----0-----0--| 
|--------------------------|--------------------------| 
|--3-----------3-----------|--3-----------3-----------| 
|--------------------------|--------------------------|

Verse
|--------------------------|--------------------------|
|--------3-----------7-----|--------8-----------8-----|
|-----0-----0-----0-----0--|--------------------------|
|--------------------------|-----0-----0-----0-----0--|
|--3-----------7-----------|--8-----------8-----------|
|--------------------------|--------------------------|
   I ve got a lot of things to do to-

|--------------------------|--------------------------| 
|--------3-----------3-----|--------3-----------3-----| 
|-----0-----0-----0-----0--|-----0-----0-----0-----0--| 
|--------------------------|--------------------------| 
|--3-----------3-----------|--3-----------3-----------| 
|--------------------------|--------------------------|
   Night..   

|--------------------------|--------------------------|
|--------3-----------7-----|--------8-----------8-----|
|-----0-----0-----0-----0--|--------------------------|
|--------------------------|-----0-----0-----0-----0--|
|--2-----------7-----------|--8-----------8-----------|
|--------------------------|--------------------------|
   I m so sick of making lists..

|--------------------------|--------------------------|
|--------8-----------8-----|--------3-----------3-----|
|-----0-----0-----0-----0--|--------------------------|
|--------------------------|-----0-----0-----0-----0--|
|--8-----------8-----------|--3-----------3-----------|
|--------------------------|--------------------------|
               Of things I ll never finish..

|--------------------------|--------------------------|
|--------3-----------7-----|--------8-----------8-----|
|-----0-----0-----0-----0--|--------------------------|
|--------------------------|-----0-----0-----0-----0--|
|--3-----------7-----------|--8-----------8-----------|
|--------------------------|--------------------------|
   I ve lived here for the last 12..

|--------------------------|--------------------------| 
|--------3-----------3-----|--------3-----------3-----| 
|-----0-----0-----0-----0--|-----0-----0-----0-----0--| 
|--------------------------|--------------------------| 
|--3-----------3-----------|--3-----------3-----------| 
|--------------------------|--------------------------|
   Years..  

|--------------------------|--------------------------|
|--------3-----------7-----|--------8-----------8-----|
|-----0-----0-----0-----0--|--------------------------|
|--------------------------|-----0-----0-----0-----0--|
|--2-----------7-----------|--8-----------8-----------|
|--------------------------|--------------------------|
   Since early 1995.

|--------------------------|--------------------------|
|--------8-----------8-----|--------3-----------3-----|
|-----0-----0-----0-----0--|--------------------------|
|--------------------------|-----0-----0-----0-----0--|
|--8-----------8-----------|--3-----------3-----------|
|--------------------------|--------------------------|
               All my shit have been in boxes..


|--------------------------|--------------------------|
|--------3-----------7-----|--------8-----------8-----|
|-----0-----0-----0-----0--|--------------------------|
|--------------------------|-----0-----0-----0-----0--|
|--3-----------7-----------|--8-----------8-----------|
|--------------------------|--------------------------|
   But if I had a little more time to..

|--------------------------|--------------------------| 
|--------3-----------3-----|--------3-----------3-----| 
|-----0-----0-----0-----0--|-----0-----0-----0-----0--| 
|--------------------------|--------------------------| 
|--3-----------3-----------|--3-----------3-----------| 
|--------------------------|--------------------------|
   Kill...   

|--------------------------|--------------------------|
|--------3-----------7-----|--------8-----------8-----|
|-----0-----0-----0-----0--|--------------------------|
|--------------------------|-----0-----0-----0-----0--|
|--2-----------7-----------|--8-----------8-----------|
|--------------------------|--------------------------|
   I d settle every little stupid thing..

|--------------------------|--------------------------|
|--------8-----------8-----|--------3-----------3-----|
|-----0-----0-----0-----0--|--------------------------|
|--------------------------|-----0-----0-----0-----0--|
|--8-----------8-----------|--3-----------3-----------|
|--------------------------|--------------------------|
    Yea you think that I would...

Bridge
|--------------------------|--------------------------|
|--------------------------|--------------------------|
|----------------5---------|------------7----5--------|
|--------5-------5-x8------|-----7------7-x4-5-x4-----|
|--------5-x8----3---------|-----7-x8---5----3--------|
|--------3-------x---------|-----5------x----x--------|
    But I m too tired to go to sleep tonight..

|--------------------------|--------------------------|
|--------------------------|--------------------------|
|----------------5---------|------------7----5--------|
|--------5-------5-x8------|-----7------7-x4-5-x4-----|
|--------5-x8----3---------|-----7-x8---5----3--------|
|--------3-------x---------|-----5------x----x--------|
    And I m too weak to follow dreams tonight..

CHORUS   
|-------------------------------|--------------------------|
|-------------------------------|--------------------------|
|------------------------5------|------------------7-------|
|--------5---------------5-x8---|-------7----------7-x8----|
|--------5-x8------------3------|-------7-x8-------5-------|
|--------3---------------x------|-------5----------x-------|
For the first time in a long time I can say.. That I want to try..
 
|-------------------------------|--------------------------|
|-------------------------------|--------------------------|
|------------------------5------|--------------7-----------|
|--------5---------------5-x8---|-----7--------7-----------|
|--------5-x8------------3------|-----7-x8-----5-----------|
|--------3---------------x------|-----5--------x-----------|
To get better~~  and  overcome each moment.. . In my own way

Intro
|--------------------------|--------------------------| 
|--------3-----------3-----|--------3-----------3-----| 
|-----0-----0-----0-----0--|-----0-----0-----0-----0--| 
|--------------------------|--------------------------| 
|--3-----------3-----------|--3-----------3-----------| 
|--------------------------|--------------------------|

Verse
|--------------------------|--------------------------|
|--------3-----------7-----|--------8-----------8-----|
|-----0-----0-----0-----0--|--------------------------|
|--------------------------|-----0-----0-----0-----0--|
|--3-----------7-----------|--8-----------8-----------|
|--------------------------|--------------------------|
   I wonder if I ll ever lose my..

|--------------------------|--------------------------| 
|--------3-----------3-----|--------3-----------3-----| 
|-----0-----0-----0-----0--|-----0-----0-----0-----0--| 
|--------------------------|--------------------------| 
|--3-----------3-----------|--3-----------3-----------| 
|--------------------------|--------------------------|
   Mind~..  

|--------------------------|--------------------------|
|--------3-----------7-----|--------8-----------8-----|
|-----0-----0-----0-----0--|--------------------------|
|--------------------------|-----0-----0-----0-----0--|
|--2-----------7-----------|--8-----------8-----------|
|--------------------------|--------------------------|
   I tried hard for a while...

|--------------------------|--------------------------|
|--------8-----------8-----|--------3-----------3-----|
|-----0-----0-----0-----0--|--------------------------|
|--------------------------|-----0-----0-----0-----0--|
|--8-----------8-----------|--3-----------3-----------|
|--------------------------|--------------------------|
                But then I kind of gave up..

|--------------------------|--------------------------|
|--------3-----------7-----|--------8-----------8-----|
|-----0-----0-----0-----0--|--------------------------|
|--------------------------|-----0-----0-----0-----0--|
|--3-----------7-----------|--8-----------8-----------|
|--------------------------|--------------------------|
   Winter is killer when the sun goes..

|--------------------------|--------------------------| 
|--------3-----------3-----|--------3-----------3-----| 
|-----0-----0-----0-----0--|-----0-----0-----0-----0--| 
|--------------------------|--------------------------| 
|--3-----------3-----------|--3-----------3-----------| 
|--------------------------|--------------------------|
   Down~..

|--------------------------|--------------------------|
|--------3-----------7-----|--------8-----------8-----|
|-----0-----0-----0-----0--|--------------------------|
|--------------------------|-----0-----0-----0-----0--|
|--2-----------7-----------|--8-----------8-----------|
|--------------------------|--------------------------|
   I m really not as stubborn as it seems

|--------------------------|--------------------------|
|--------8-----------8-----|--------3-----------3-----|
|-----0-----0-----0-----0--|--------------------------|
|--------------------------|-----0-----0-----0-----0--|
|--8-----------8-----------|--3-----------3-----------|
|--------------------------|--------------------------|
               Said the knuckle to the concrete..

Bridge:
CHORUS:

**STUFF::
|-------------------------------|--------------------------|
|-------------------------------|--------------------------|
|------------------------10-----|--------------------------|
|--------5---------------10-x8--|-------10-----------------|
|--------5-x8------------8------|-------10-x16-------------|
|--------3---------------x------|-------8------------------|

REPEAT **STUFF:: through next verse..

Verse:
I m not saying that I m giving up
I m just trying not to think.. As much as I used to
Cause never is a lonely little messed up word
Maybe I ll get it right some..day

CHORUS: (play chorus chords)
For the first time in a long time I can say
That I want to try
I feel helpless for the most part
But I m learning to open my eyes
And the sad truth of the matter is
I ll never get over it
But I m gonna try
To get better~ and overcome each moment
..In my own way


Outro:
|--------------------------|--------------------------| 
|--------3-----------3-----|--------3-----------3-----| 
|-----0-----0-----0-----0--|-----0-----0-----0-----0--| 
|--------------------------|--------------------------| 
|--3-----------3-----------|--3-----------3-----------| 
|--------------------------|--------------------------|

Verse
|--------------------------|--------------------------|
|--------3-----------7-----|--------8-----------8-----|
|-----0-----0-----0-----0--|--------------------------|
|--------------------------|-----0-----0-----0-----0--|
|--3-----------7-----------|--8-----------8-----------|
|--------------------------|--------------------------|
   I sure want to get back on..

|--------------------------|--------------------------| 
|--------3-----------3-----|--------3-----------3-----| 
|-----0-----0-----0-----0--|-----0-----0-----0-----0--| 
|--------------------------|--------------------------| 
|--3-----------3-----------|--3-----------3-----------| 
|--------------------------|--------------------------|
   Track~.. 

|--------------------------|--------------------------|
|--------3-----------7-----|--------8-----------8-----|
|-----0-----0-----0-----0--|--------------------------|
|--------------------------|-----0-----0-----0-----0--|
|--2-----------7-----------|--8-----------8-----------|
|--------------------------|--------------------------|
   And I ll do whatever it takes..

|--------------------------|--------------------------|
|--------8-----------8-----|--------------------------|
|-----0-----0-----0-----0--|--5~----------------------|
|--------------------------|--5~----------------------|
|--8-----------8-----------|--3~----------------------|
|--------------------------|--x-----------------------|
                Even if it kills me....



Tap to rate this tab
# A B C D E F G H I J K L M N O P Q R S T U V W X Y Z