Motion City Soundtrack - A Lifeless Ordinary Need A Little Help tab

This part is kind of difficult to hear and plays in the background from 2:14
to 2:34 during the bridge. I first really noticed it when playing it back 
reducing vocals in Goldwave, and I didn't see it on any tabs so I decided to
tab it out myself.

You'll have to listen to the song closely to get the rhythm right, otherwise
I suggest playing that section of the song in Goldwave (or similar audio 
editor) and applying the 'Reduced vocals with some stereo' effect.

Solo:
e|--------------------------------------|     I'd like to tell you that
B|--------------------------------------|     I'm ready for whatever's coming
G|--17/15-----------15----15-15-15-15---|
A|--------13/15--17----17---------------|
D|--------------------------------------|
E|--------------------------------------|

e|--------------------------------------|     But to be honest,
B|------------------------15-15---------|     there's a part of me
G|--17/15-----------15----------17-15---|     that loses control
A|--------13/15--17----17---------------|
D|--------------------------------------|
E|--------------------------------------| x2

After playing the above riff twice, end with this:

e-------------|
B-------------|
G--17-/15-/8--|
A-------------|
D-------------|
E-------------|

On the album, it sounds like only the first note is picked and the other two
are just slid to, but it's hard to say definitively.
Tap to rate this tab
 
# A B C D E F G H I J K L M N O P Q R S T U V W X Y Z