Song name
# A B C D E F G H I J K L M N O P Q R S T U V W X Y Z

Motion City Soundtrack - Lg Fuad tab

This is the correct tab, believe no others. i have watched countless videos of them 
it live and acoustic and listened to the instrumental and am positive this is correct.

*note* tuning is half a step down.
*Note* PM - Palm Muted

VERSE Guitar 1
e----------------------------------------------------------------------------|
B----------------------------------------------------------------------------|
G----------------------------------------------------------------------------|
D------------------------------11-x4-----------------------------------------|
A-----12-x8---11-x8--12-x8-----9------5-x4----12-x8---11-x8--9-x8--77777777--|
E-----10------9------10---------------3-------10------9------7-----55555555--|
PM ...........................................................     .....

e----------------------------------------------------------------------------|
B----------------------------------------------------------------------------|
G----------------------------------------------------------------------------|
D----------------------------------------------------------------------------|
A-----12-x8---11-x8--12-x8------4-x4--5-x4----12-x8---11-x8--9-x8--77777777--|
E-----10------9------10---------2-----3-------10------9------7-----55555555--|
PM ...........................................................     .....

Chorus: Guitar 1
e-----------------------------------------------------------------------------|
B-----7--------7--------10--------10------------------------------------------|
G---7---7----7---7----9----9----9----9---11---------11--------14p11-11-14p11--|
D-------------------------------------------12---12----12---12-------------14-|
A----------------------------------------------9----------9-------------------|
E-5--------5--------7---------7-----------------------------------------------|
[x3] sorry couldnt fit it in there.


e---------------------------------------------------||-----------------------|
B-----7--------7--------10--------10----------------||-----------14-\--------|
G---7---7----7---7----9----9----9----9--------------||--------14-----x16-----|
D---------------------------------------------------||--------------/--------|
A---------------------------------------------------||-----------------------|
E-5--------5--------7---------7---------------------||-----------------------|

Chorus: Guitar 2
e-3------0-----0-----0-------\----3------0------------------------------------|
B-3------3-----3-----3--------\---3------3------------------------------------|
G-0-x4---2-x4--2-x4--2-x4------x3-0-x4---2-x4---------------------------------|
D-0------2-----0-----0--------/---0------2------------------------------------|
A-x------0-----2-----0-------/----x------0-------12-x16-1212121212121210-12x8-|
E-3------x-----x-----x------/-----3------x-------10-----1010101010101010-10---|
                                                 PM.....    .................

Verse Guitar 1:
e----------------------------------------------------------------------------|
B----------------------------------------------------------------------------|
G----------------------------------------------------------------------------|
D------------------------------11-x4-----------------------------------------|
A-----12-x8---11-x8--12-x8-----9------5-x4----12-x8---11-x8--9-x8--77777777--|
E-----10------9------10---------------3-------10------9------7-----55555555--|
PM ...........................................................     .....

e----------------------------------------------------------------------------|
B----------------------------------------------------------------------------|
G----------------------------------------------------------------------------|
D----------------------------------------------------------------------------|
A-----12-x8---11-x8--12-x8------4-x4--5-x4----12-x8---11-x8--9-x8--77777777--|
E-----10------9------10---------2-----3-------10------9------7-----55555555--|
PM ...........................................................     .....

Chorus: Guitar 1
e-----------------------------------------------------------------------------|
B-----7--------7--------10--------10------------------------------------------|
G---7---7----7---7----9----9----9----9---11---------11--------14p11-11-14p11--|
D-------------------------------------------12---12----12---12-------------14-|
A----------------------------------------------9----------9-------------------|
E-5--------5--------7---------7-----------------------------------------------|
[x3] sorry couldnt fit it in there.

e---------------------------------------------------||-----------------------|
B-----7--------7--------10--------10----------------||-----------14-\--------|
G---7---7----7---7----9----9----9----9--------------||--------14-----x16-----|
D---------------------------------------------------||--------------/--------|
A---------------------------------------------------||-----------------------|
E-5--------5--------7---------7---------------------||-----------------------|

Chorus Guitar 2
e-----------------------------------------------------------------------------|
B-----------------------------------------------------------------------------|
G-----------------------------------------------------------------------------|
D--5-x8---7-x8--9-x8--7-x8-\-----5-x8-7-x8------------------------------------|
A--5------7-----9-----7-----x3---5----7----------12-x16-1212121212121210-12x8-|
E--3------5-----7----5-----/-----3----5x---------10-----1010101010101010-10---|
                                                 PM.....    .................


Verse Guitar 1:
e----------------------------------------------------------------------------|
B----------------------------------------------------------------------------|
G----------------------------------------------------------------------------|
D------------------------------11-x4-----------------------------------------|
A-----12-x8---11-x8--12-x8-----9------5-x4----12-x8---11-x8--9-x8--77777777--|
E-----10------9------10---------------3-------10------9------7-----55555555--|
PM ...........................................................     .....

e----------------------------------------------------------------------------|
B----------------------------------------------------------------------------|
G----------------------------------------------------------------------------|
D----------------------------------------------------------------------------|
A-----12-x8---11-x8--12-x8------4-x4--5-x4----12-x8---11-x8--9-x8--7---------|
E-----10------9------10---------2-----3-------10------9------7-----5---------|
PM ...........................................................

 Chorus: Guitar 1
e-----------------------------------------------------------------------------|
B-----7--------7--------10--------10------------------------------------------|
G---7---7----7---7----9----9----9----9---11---------11--------14p11-11-14p11--|
D-------------------------------------------12---12----12---12-------------14-|
A----------------------------------------------9----------9-------------------|
E-5--------5--------7---------7-----------------------------------------------|
[x3] sorry couldnt fit it in there.

e----------------------------------------------------------------------------|
B-----7--------7--------10--------10-----------------------------------------|
G---7---7----7---7----9----9----9----9---------------------------------------|
D----------------------------------------------------------------------------|
A----------------------------------------------------------------------------|
E-5--------5--------7---------7----------------------------------------------|

Chorus Guitar 2
e--------------------------------3-----0-----3-----3-----3-----0--------------|
B--------------------------------3-----3-----3-----3-----3-----3--------------|
G--------------------------------0-x8--2-x8--2-x8--2-x8--0-x8--2-x8-----------|
D--5-x2---7-x2--9-x2--7-x2-\-----0-----2-----0-----2-----0-----2--------------|
A--5------7-----9-----7-----x2---x-----0-----0-----0-----x-----0--------------|
E--3------5-----7-----5----/-----3-----x-----x-----x-----3-----x--------------|

Outro Both Guitars
e----------------------------------------------------------------------------|
B----------------------------------------------------------------------------|
G-------7--------------------------------------------------------------------|
D-------7-x32----------------------------------------------------------------|
A-------5--------------------------------------------------------------------|
E----------------------------------------------------------------------------|

Guitar 1
e-----------------------------------------------------------------------------|
B-----------------------------------------------------------------------------|
G-----------------------------------------------------------------------------|
D----------77--7-x16-7--------------------------------------------------------|
A----------55--5-----5--------------------------------------------------------|
E-----------------------------------------------------------------------------|
        Pm     .....

Listen To the song to get it exactly right but yup, this is how you play it.
Tap to rate this tab
 
# A B C D E F G H I J K L M N O P Q R S T U V W X Y Z