Song name
# A B C D E F G H I J K L M N O P Q R S T U V W X Y Z

Motion City Soundtrack - Everything Is Alright tab

So, I've been reading all of the tabs and most of them are correct, accept for the 
intro.  I couldn't hear what it was at first, but I am pretty sure that this is actually correct.

Because of the second note in the intro (and watching their live videos), the song is 
actually played in half step tuning.

Intro
eb|-------------------------------------|
Bb|-------------------------------------|
Gb|--9-9-9-9-9-x-9----------------------|
Db|--9-9-9-9-9-x-9--11-11-11-9-9h11-11--|
Ab|--7-7-7-7-7-x-7--0--0--0--0-0----0---|
Eb|-------------------------------------|

eb|--------------------------------------|
Bb|--------------------------------------|
Gb|--------------------------------------|
Db|--11-11-11-11-11-x-11--7-7-7-7-7-7-7--|
Ab|--11-11-11-11-11-x-11--7-7-7-7-7-7-7--|
Eb|--9-=9--9--9--9--x-9---5-5-5-5-5-4-0--|

That last part is subtle, but it's there if you listen carefully.
Tap to rate this tab
# A B C D E F G H I J K L M N O P Q R S T U V W X Y Z