Song name
# A B C D E F G H I J K L M N O P Q R S T U V W X Y Z

Motion City Soundtrack - True Romance tab

Decided to tab this out after learning it earlier and checking out the other tab, which 
despite being rated 5* doesn't sound right at all. This sounds perfect :)

Intro

Guitar 1
e|---------x---------x--------x-------------x-------------------------------|
B|-------9-x--10-10--x---7-7--x-------------x-------------------------------|
G|---------x---------x--------x---6-6-6-6-6-x-------------------------------|
D|-------9-x--11-11--x---7-7--x-------------x-------------------------------|
A|-------7-x---9--9--x---5-5--x---7-7-7-7-7-x-------------------------------|
E|---------x---------x--------x---5-5-5-5-5-x-------------------------------|

e|---------x---------x--------x------------------x--------------------------|
B|-------9-x--10-10--x---7-7--x---14-14-14-14-14-x--------------------------|
G|---------x---------x--------x------------------x--------------------------|
D|-------9-x--11-11--x---7-7--x---14-14-14-14-14-x--------------------------|
A|-------7-x---9--9--x---5-5--x---12-12-12-12-12-x--------------------------|
E|---------x---------x--------x------------------x--------------------------|x4

Guitar 2 (Comes in with everything else)
e|--------------------------------------------------------------------------|
B|--------------------------------------------------------------------------|
G|--------------------------------------------------------------------------|
D|--9----11-11----7--7-------------9----11--11----7--7--11-11-11-11-11------|
A|----------------------7-7-7-7-7-------------------------------------------|
E|--------------------------------------------------------------------------|x2

Verse
e|---------x-----------x--------x----------x--------------------------------|
B|-------9-x--10-10-10-x---7----x----------x--------------------------------|
G|---------x-----------x--------x---6-6-6--x--------------------------------|
D|-------9-x--11-11-11-x---7----x----------x--------------------------------|
A|-------7-x---9--9--9-x---5----x---7-7-7--x--------------------------------|
E|---------x-----------x--------x---5-5-5--x--------------------------------|x2

Pre-chorus

Guitar 1
e|--16------17------16--------------17------17------17------17------|
B|------17------17------17------17------17------17------17------17--|
G|--------------------------18--------------------------------------|
D|------------------------------------------------------------------|
A|------------------------------------------------------------------|
E|------------------------------------------------------------------|x2

Guitar 2 (Palm-muted)
e|------------------------------------------------------------------|
B|------------------------------------------------------------------|
G|--------------------------6-6-6-6-7-7-7-7-7-7-7-7-7-7-7-7-7-------|
D|--2-2-2-2-2-2-2-2-2-2-2-2-7-7-7-7-7-7-7-7-7-7-7-7-7-7-7-7-7-7-7-7-|
A|--2-2-2-2-2-2-2-2-2-2-2-2-4-4-4-4-5-5-5-5-5-5-5-5-5-5-5-5-5-7-7-7-|
E|--0-0-0-0-0-0-0-0-0-0-0-0-----------------------------------5-5-5-|

e|----------------------------------------------------------x-x-x-x-|
B|----------------------------------------------------------x-x-x-x-|
G|--------------------------6-6-6-6-7-7-7-7-7-7-7-7-7-7-7-7-x-x-x-x-|
D|--2-2-2-2-2-2-2-2-2-2-2-2-7-7-7-7-7-7-7-7-7-7-7-7-7-7-7-7-x-x-x-x-|
A|--2-2-2-2-2-2-2-2-2-2-2-2-4-4-4-4-5-5-5-5-5-5-5-5-5-5-5-5-x-x-x-x-|
E|--0-0-0-0-0-0-0-0-0-0-0-0---------------------------------x-x-x-x-|

Chorus

Guitar 1
e|---------x---------x--------x-------------x-------------------------------|
B|-------9-x--10-10--x---7-7--x-------------x-------------------------------|
G|---------x---------x--------x---6-6-6-6-6-x-------------------------------|
D|-------9-x--11-11--x---7-7--x-------------x-------------------------------|
A|-------7-x---9--9--x---5-5--x---7-7-7-7-7-x-------------------------------|
E|---------x---------x--------x---5-5-5-5-5-x-------------------------------|

e|---------x---------x--------x------------------x--------------------------|
B|-------9-x--10-10--x---7-7--x---14-14-14-14-14-x--------------------------|
G|---------x---------x--------x------------------x--------------------------|
D|-------9-x--11-11--x---7-7--x---14-14-14-14-14-x--------------------------|
A|-------7-x---9--9--x---5-5--x---12-12-12-12-12-x--------------------------|
E|---------x---------x--------x------------------x--------------------------|x4

Guitar 2
e|--------------------------------------------------------------------------|
B|--------------------------------------------------------------------------|
G|--------------------------------------------------------------------------|
D|--9----11-11----7--7-------------9----11--11----7--7--11-11-11-11-11------|
A|----------------------7-7-7-7-7-------------------------------------------|
E|--------------------------------------------------------------------------|x4

Bridge
e|-------------------------------------------------|
B|-10-------14------7-------5-------9------7-------|
G|-------------------------------------------------|
D|-11--x12--14--x4--7--x16--6--x12--9--x4--7--x16--|
A|--9-------12------5-------4-------7------5-------|
E|-------------------------------------------------|x2

e|--2----5----5----4----2----5----5----4--5--|
B|--2----7----5----5----2----7----5----5--7--|
G|--2----7----6----6----2----7----6----6--7--|
D|--4----7----7----6----4----7----7----6--7--|
A|--4----5----7----4----4----5----7----4--5--|
E|--2---------5---------2---------5----------|

Structure is as follows:
Intro
Verse
Pre-chorus
Chorus
Verse
Pre-chorus
Chorus
Bridge
Chorus x2

That structure probably doesn't make much sense, seeing as the chorus is the same as the 
intro and whatnot, but you get the idea.
Tap to rate this tab
# A B C D E F G H I J K L M N O P Q R S T U V W X Y Z