Song name
# A B C D E F G H I J K L M N O P Q R S T U V W X Y Z

Motion City Soundtrack - Capital H tab

This is the moog intro for Capital H, which basically repeats throughout the song,
but it does a few other notes before this part starts after the song gets going...

Tuning: ( EADGBe )

/ = slide (down)
~ = ring out
()= optional

e|------------------------------|
B|------------------------------|
G|------------------------------|
D|---13-/-9~~~~~----13-/-9~~~~~-|
A|------------------------------|
E|------------------------------|

e|----------------------------------------------|
B|----------12--11--9----9----------------------|
G|--------------------11---11--9--8--9--11------|
D|---13-/-9(~~~)---------------------------9~~~-|
A|----------------------------------------------|
E|----------------------------------------------|

e|------------------------------|
B|------------------------------|
G|------------------------------|
D|---13-/-9~~~~~----------------|
A|------------------------------|
E|------------------------------|

this ones fun to play and its a good song, so comment on how you like it.
Tap to rate this tab
# A B C D E F G H I J K L M N O P Q R S T U V W X Y Z