Song name
# A B C D E F G H I J K L M N O P Q R S T U V W X Y Z

Motion City Soundtrack - Dont Call It A Comeback tab

Artist: Motion City Soundtrack
Song: Don't Call It A Comeback
Album: I Am The Movie
Tunning: Standard
Tabbed By: >>Max<<

Josh's parts in the songs are always pretty tricky to tab in my opinion (with them being 
quiet compared to the the rhythm guitar, and not just power chords), so the guitar 1's 
to be 100% right, but they sound OK. If anyone knows a better way to play any of
this, leave a comment.


INTRO MOOG (I guess this is how you'd play it...)
e|------------------------------------------|
B|------------------------------------------|
G|----8-10-11---8-10-11---8-10-11---8-10-11-|
D|------------------------------------------|
A|----------------------9-------------------|
E|-11---------9-------------------7---------|

e|-------------------------------------|
B|-------------------------------12--11|
G|--8-10-11---8-10-11---8-10-11--------|
D|-------------------------------------|
A|--------------------9----------------|
E|11--------9--------------------------|


INTRO (Both Guitars)
e|-----------|--------|
B|-----------|--------|
G|--8-8--8-8-|-11-----|
D|--8-8--8-8-|-11-----|(x8)
A|--6-6--6-6-|-9------|
E|-----------|--------|

CHORUS (Both Guitars)
e|-------------------------------------|
B|-------------------------------------|
G|--8-6-11---8-6-11---8-10-11---8-6-11-|
D|--8-6-11-9-8-6-11-9-8-10-11-9-8-6-11-|
A|--6-4-9--9-6-4-9--9-6-8--9--9-6-4-9--|
E|---------7--------7---------7--------|

VERSE (Guitar 1)
e|-------------------------------------------|
B|-------------------------------------------|
G|------11----11----11----11----11--11--11---|
D|------11----11----11----11----11--11--11---| x4
A|--9-9--9--9--9--9--9--9--9-----9---9---9---|
E|-------------------------------------------|



e|----------------------------------------------------------|
B|-----11----9-9-----11----9-9-----11----9-9-----9----9-9---|
G|--11----11------11----11------11----11------10---10-------|
D|----------------------------------------------------------|  x2
A|----------------------------------------------------------|
E|----------------------------------------------------------|

SOLO (Guitar 1, Guitar 2 plays CHORUS)
e|---------------------------------------------------------------------------------|
B|--------------------------------12-11-12/14--12-11----11-------------11h12h14-14-|
G|--11-10--------------------------------------------11----11-11h13h15-------------|
D|--------11-13-11-9-8-------------------------------------------------------------|
A|---------------------9--11--9----------------------------------------------------|
E|---------------------------------------------------------------------------------|

BRIDGE (Guitar 1)

e|------------------------------------------------------------|
B|------------------------------------------------------------|
G|--11-11--10-10-10--10-10--10-10-10--10-10--10-10-10--10-10--|
D|------------------------------------------------------------| x2
A|------------------------------------------------------------|
E|------------------------------------------------------------|

e|---------------------------------------------------------|
B|---------------------------------------------------------|
G|--10-10-10--10--10-10-10--10--10-10-10--10--10-10-10--10-|
D|---------------------------------------------------------|
A|---------------------------------------------------------|
E|---------------------------------------------------------|

e|----------------------------------------------------------------------------------|
B|--------------------------------------------11-11--11-11--11-11--11-11--11-11--11-|
G|-10-10-10--10--10-10-10--10--10-10-10--10---11-11--8--8---11-11--8--8---11-11--8--|
D|----------------------------------------------------------------------------------|
A|----------------------------------------------------------------------------------|
E|----------------------------------------------------------------------------------|


BRIDGE (Guitar 2)
e|---------------------------------------------|
B|---------------------------------------------|
G|--8-11-------8-11--------9-10-11-----9-10-11-|
D|--8-11-11-9--8-11-11-9---9-10-11-11--9-10-11-|
A|--6-9--11-9--6-9--11-9---7-8--9--11--7-8--9--|
E|-------9--7-------9--7-----------9-----------|

ORDER:

INTRO
CHORUS
VERSE
CHORUS
VERSE
CHORUS
SOLO
BRIDGE
CHORUS


Any questions or suggestions -- leave a comment.
Tap to rate this tab
 
# A B C D E F G H I J K L M N O P Q R S T U V W X Y Z