Song name
# A B C D E F G H I J K L M N O P Q R S T U V W X Y Z

Motion City Soundtrack - Modern Chemistry tab

I think its kinda strange that nobody bothered to tab the lead guitar for this.. the 
parts are 100% correct but the best part of the song is missing.

Intro / Chorus:
Rhythm:
e|-----------------------------------------------|
B|-----------------------------------------------|
G|-----------66666666----------------------------|
D|-3333-6666-66666666----------------------------|
A|-3333-6666-44444444----------------------------|
E|-1111-4444-------------------------------------|

e|-----------------------------------------------|
B|-----------------------------------------------|
G|-5555555555555555-3333333333333666-------------|
D|-5555555555555555-3333333333333666-------------|
A|-3333333333333333-1111111111111444-------------|
E|-----------------------------------------------|

Lead
e|-----------------------------------------------|
B|--------------13-13-14-13----------------------|
G|--13-12-13-------------------------------------|
D|-----------13----------------------------------|
A|-----------------------------------------------|
E|-----------------------------------------------|

e|-----------------------------------------------|
B|--------------13-13-13-11----------------------|
G|--13-12-13-------------------------------------|
D|-----------13----------------------------------|
A|-----------------------------------------------|
E|-----------------------------------------------|

e|-----------------------------------------------|
B|--------------13-13-14-13----------------------|
G|--13-12-13-------------------------------------|
D|-----------13----------------------------------|
A|-----------------------------------------------|
E|-----------------------------------------------|

e|-----------------------------------------------|
B|-----------------------------------------------|
G|---13--12--13--12--13--12--13-12-10------------|
D|-10--10--10--10--10--10--10--------------------|
A|-----------------------------------------------|
E|-----------------------------------------------|

e|-----------------------------------------------|
B|-----------------------------------------------|
G|---13--12--13--12--10--12--13-11---11----------|
D|-11--11--11--11--11--------------13--13--------|
A|-----------------------------------------------|
E|-----------------------------------------------|

Verse:
e|-----------------------------------------------|
B|-----------------------------------------------|
G|-----------66666666----------------------------|
D|-3333-6666-66666666----------------------------|
A|-3333-6666-44444444----------------------------|
E|-1111-4444-------------------------------------|
   **** **** ********

e|-----------------------------------------------|
B|-----------------------------------------------|
G|-5555555555555555-3333333333333666-------------|
D|-5555555555555555-3333333333333666-------------|
A|-3333333333333333-1111111111111444-------------|
E|-----------------------------------------------|
   **************** *************

Outro:
e|--------------------------------------------------------------------------|
B|--------------------------------------------------------------------------|
G|-----------66666666-----------66666666-----------66666666-----------6-----|
D|-3333-6666-66666666-3333-6666-66666666-3333-6666-66666666-3333-6666-6-----|
A|-3333-6666-44444444-3333-6666-44444444-3333-6666-44444444-3333-6666-4-----|
E|-1111-4444----------1111-4444----------1111-4444----------1111-4444-------|
Tap to rate this tab
# A B C D E F G H I J K L M N O P Q R S T U V W X Y Z