Song name
# A B C D E F G H I J K L M N O P Q R S T U V W X Y Z

Motion City Soundtrack - My Favorite Accident tab

My Favorite Accident                 Motion City Soundtrack



Intro:
E|----------------|----------------|--------------------------------|--------------------------------|
B|--9-------------|----------------|--------------------------------|--------------------------------|
G|----108-108-6-8-|10--6-------8---|--------------101010101010--10--|101010101010--10--101010101010--|
D|8---------------|--------6-------|--------------x-x-x-x-x-x---x---|x-x-x-x-x-x---x---x-x-x-x-x-x---|
A|----------------|----------------|--------------8-8-8-8-8-8---8---|8-8-8-8-8-8---8---8-8-8-8-8-8---|
E|----------------|----------------|--------------------------------|--------------------------------|
                                    1   &   2   &   3   &   4   &    1   &   2   &   3   &   4   &  
E|----------------|----------------|----------------|--------------------------------|
B|--9-------------|----------------|--9-------------|--------------------------------|
G|----108-108-6-8-|10--6-------8---|----108-108-6-8-|108-108-108---10--8-108-109-----|
D|8---------------|--------6-------|8---------------|--------------------------------|
A|----------------|----------------|----------------|--------------------------------|
E|----------------|----------------|----------------|--------------------------------|
                                                      1   &   2   &   3   &   4   &   
E|----------------|----------------|----------------|----------------|
B|--9-------------|----------------|--9-------------|--------9-------|
G|----108-108-6-8-|10--6-------8---|----108-108-6-8-|10--8-----------|
D|8---------------|--------6-------|8---------------|----------------|
A|----------------|----------------|----------------|----------------|
E|----------------|----------------|----------------|----------------|

Verse:
E|----------------|----------------|----------------|----------------|
B|----------------|----------------|----------------|----------------|
G|----------------|----------------|----------------|----------------|
D|----------------|----------------|----------------|----------------|2x
A|----------------|----------------|----------------|----------------|
E|----------------|----------------|----------------|----------------|

E|----------------|----------------|----------------|----------------|
B|----------------|----------------|----------------|----------------|
G|----------------|----------------|----------------|----------------|
D|----------------|----------------|----------------|----------------|PM
A|8888888866666666|4444444444444444|8888888866666666|444444--444444--|
E|6666666644444444|2222222222222222|6666666644444444|222222--222222--|

Chorus:
E|----------------|----------------|----------------|----------------|
B|----------------|----------------|----------------|----------------|
G|----------------|6-6-6-6-10--5---|----------------|6-6-6-6-8---10--|
D|3-3-3-3-4-4-4-4-|6-6-6-6-10--5---|3-3-3-3-4-4-4-4-|6-6-6-6-8---10--|
A|3-3-3-3-4-4-4-4-|4-4-4-4-8---3---|3-3-3-3-4-4-4-4-|4-4-4-4-6---8---|
E|1-1-1-1-2-2-2-2-|----------------|1-1-1-1-2-2-2-2-|----------------|

E|----------------|----------------|----------------|----------------|
B|----------------|----------------|----------------|----------------|
G|----------------|6-6-6-6-10--5---|----------------|6---------------|
D|3-3-3-3-4-4-4-4-|6-6-6-6-10--5---|3-3-3-3-4-4-4-4-|6---------------|
A|3-3-3-3-4-4-4-4-|4-4-4-4-8---3---|3-3-3-3-4-4-4-4-|4---------------|
E|1-1-1-1-2-2-2-2-|----------------|1-1-1-1-2-2-2-2-|----------------|

E|----------------|
B|----------------|
G|6---------------|
D|6---------------|
A|4---------------|
E|--------X///////|

Fill In
E|----------------|----------------|----------------|--------------------------------|
B|--9-------------|----------------|--9-------------|--------------------------------|
G|----108-108-6-8-|10--6-------8---|----108-108-6-8-|108-108-108---10--8-108-109-----|
D|8---------------|--------6-------|8---------------|--------------------------------|
A|----------------|----------------|----------------|--------------------------------|
E|----------------|----------------|----------------|--------------------------------|
                                                      1   &   2   &   3   &   4   &   
Verse 2:
E|----------------|----------------|----------------|----------------|
B|----------------|----------------|----------------|----------------|
G|----------------|----------------|----------------|----------------|
D|8-888886-6666664|-444444444444444|8-888886-666666-|--4---4---4-4-4-|
A|8-888886-6666664|-444444444444444|8-888886-666666-|444-444-444-4-4-|
E|6-666664-4444442|-222222222222222|6-666664-444444-|222-222-222-2-2-|
                                                     ..  ..  ..  
E|----------------|----------------|----------------|----------------|
B|----------------|----------------|----------------|----------------|
G|----------------|----------------|----------------|1111111111------|
D|8-888886-6666664|-444444444444444|8-888886-666666-|1111111111------|
A|8-888886-6666664|-444444444444444|8-888886-666666-|999999999-------|
E|6-666664-4444442|-222222222222222|6-666664-444444-|----------------|

Chorus 2:
E|----------------|----------------|----------------|----------------|
B|----------------|----------------|----------------|----------------|
G|----------------|6-6-6-6-10--5---|----------------|6-6-6-6-8---10--|
D|3-3-3-3-4-4-4-4-|6-6-6-6-10--5---|3-3-3-3-4-4-4-4-|6-6-6-6-8---10--|
A|3-3-3-3-4-4-4-4-|4-4-4-4-8---3---|3-3-3-3-4-4-4-4-|4-4-4-4-6---8---|
E|1-1-1-1-2-2-2-2-|----------------|1-1-1-1-2-2-2-2-|----------------|

E|----------------|----------------|----------------|--------------------|
B|----------------|----------------|----------------|--------------------|
G|----------------|6-6-6-6-10--5---|----------------|6------|-3---|--3--||
D|3-3-3-3-4-4-4-4-|6-6-6-6-10--5---|3-3-3-3-4-4-4-4-|6-------6-3---6-3---|
A|3-3-3-3-4-4-4-4-|4-4-4-4-8---3---|3-3-3-3-4-4-4-4-|4-----------4-----4-|
E|1-1-1-1-2-2-2-2-|----------------|1-1-1-1-2-2-2-2-|--------------------|

E|----------------|----------------|----------------|----------------|
B|----------------|----------------|----------------|----------------|
G|----------------|6-6-6-6-10--5---|----------------|6-6-6-6-8---10--|
D|3-3-3-3-4-4-4-4-|6-6-6-6-10--5---|3-3-3-3-4-4-4-4-|6-6-6-6-8---10--|
A|3-3-3-3-4-4-4-4-|4-4-4-4-8---3---|3-3-3-3-4-4-4-4-|4-4-4-4-6---8---|
E|1-1-1-1-2-2-2-2-|----------------|1-1-1-1-2-2-2-2-|----------------|

E|----------------|----------------|----------------|----------------|
B|----------------|----------------|----------------|----------------|
G|----------------|6-6-6-6-10--5---|----------------|6---------------|
D|3-3-3-3-4-4-4-4-|6-6-6-6-10--5---|3-3-3-3-4-4-4-4-|6---------------|
A|3-3-3-3-4-4-4-4-|4-4-4-4-8---3---|3-3-3-3-4-4-4-4-|4---------------|
E|1-1-1-1-2-2-2-2-|----------------|1-1-1-1-2-2-2-2-|------X/////////|

Verse 3:
E|----------------|----------------|----------------|----------------|
B|----------------|----------------|----------------|----------------|
G|----------------|----------------|----------------|----------------|
D|8-888886-6666664|-444444444444444|8-888886-666666-|--4---4---4-4-4-|
A|8-888886-6666664|-444444444444444|8-888886-666666-|444-444-444-4-4-|
E|6-666664-4444442|-222222222222222|6-666664-444444-|222-222-222-2-2-|
                                                     ..  ..  ..  
E|----------------|----------------|----------------|----------------|
B|----------------|----------------|----------------|----------------|
G|----------------|----------------|----------------|----------------|
D|8-888886-6666664|-444444444444444|8-888886-666666-|4---------------|
A|8-888886-6666664|-444444444444444|8-888886-666666-|4---------------|
E|6-666664-4444442|-222222222222222|6-666664-444444-|2-------X//////-|

E|----------------|----------------|----------------|----------------|
B|----------------|----------------|----------------|----------------|
G|----------------|----------------|----------------|----------------|
D|8-888886-6666664|-444444444444444|8-888886-666666-|--4---4---4-4-4-|
A|8-888886-6666664|-444444444444444|8-888886-666666-|444-444-444-4-4-|
E|6-666664-4444442|-222222222222222|6-666664-444444-|222-222-222-2-2-|
                                                     ..  ..  ..  
E|----------------|----------------|----------------|--------------------------------|
B|----------------|----------------|----------------|--------------------------------|
G|----------------|----------------|----------------|101010101010--10--101010101010--|
D|8-888886-6666664|-444444444444444|8-888886-666666-|x-x-x-x-x-x---x---x-x-x-x-x-x---|
A|8-888886-6666664|-444444444444444|8-888886-666666-|8-8-8-8-8-8---8---8-8-8-8-8-8---|
E|6-666664-4444442|-222222222222222|6-666664-444444-|--------------------------------|
                                                     1   &   2   &   3   &   4   &   
Outro:
E|--------------------------------|--------------------------------|
B|--------------------------------|--------------------------------|
G|101010101010--10--101010101010--|101010101010--10--101010101010--|
D|x-x-x-x-x-x---x---x-x-x-x-x-x---|x-x-x-x-x-x---x---x-x-x-x-x-x---|2X
A|8-8-8-8-8-8---8---8-8-8-8-8-8---|8-8-8-8-8-8---8---8-8-8-8-8-8---|
E|--------------------------------|--------------------------------|
  1   &   2   &   3   &   4   &    1   &   2   &   3   &   4   &   
E|--------------------------------|----------------|
B|--------------------------------|----------------|
G|101010101010--10--101010101010--|----------------|
D|x-x-x-x-x-x---x---x-x-x-x-x-x---|444444----------| 
A|8-8-8-8-8-8---8---8-8-8-8-8-8---|444444----------|
E|--------------------------------|222222----------|
  1   &   2   &   3   &   4   &    1 & 2 & 3 & 4 &
Tap to rate this tab
# A B C D E F G H I J K L M N O P Q R S T U V W X Y Z