Song name
# A B C D E F G H I J K L M N O P Q R S T U V W X Y Z

Motion City Soundtrack - When Youre Around Acoustic tab

Motion City Soundtrack - When You're Around (Acoustic)

this is a great song, especially in acoustic. both guitar parts are tabbed together and
according to the beat. everything's in order, so just read the tab all the way through.
drop d tuning.

 Key:

 / - slide up
 \ - slide down
 x left hand mute
 . palm-mute
 h - hammer on
 p - pull off
 e - eleventh fret (so everything lines up correctly)
 ~ - let it ring

----------------------------------------------------------------------------------
Intro

   1 + 2 + 3 +   1 + 2 + 3 +   1 + 2 + 3 +   1 + 2 + 3 + 
E|-------------|-------------|-------------|-------------|
B|-R-----------|-R-----------|-R-----------|-R-----------|
G|----E--------|----E--------|----E--------|----E--------|
D|-------S-----|-------S-----|-------S-----|-------S-----|
A|----------T--|----------T--|----------T--|----------T--|
D|-------------|-------------|-------------|-------------|
 |
 |
 | 1 + 2 + 3 +   1 + 2 + 3 +   1 + 2 + 3 +   1 + 2 + 3 + 
E|-------------|-------------|-------------|-------------|
B|-------------|-------------|-------------|-------------|
G|-------------|-------------|-------------|-------------|
D|-------------|-------6-6---|-------------|-------xx2-xx|
A|-7-7-7-7-7---|-7-7-7-x-x---|-7-7-7-7-7---|-7-7-7-xx2-xx|
D|-6-6-6-7-7---|-9-9-9-4-4---|-6-6-6-7-7---|-9-9-9-xx2-xx|


   1 + 2 + 3 +   1 + 2 + 3 +   1 + 2 + 3 +   1 + 2 + 3 + 
E|-------------|-------------|-------------|-------------|
B|-------9-----|-9---9---7---|-------9-----|-9---7h9p7---|
G|-9---9-----9-|-------------|-9---9-----9-|-------------|
D|-------------|-------------|-------------|-------------|
A|-------------|-------------|-------------|-------------|
D|-------------|-------------|-------------|-------------|
 |
 |
 | 1 + 2 + 3 +   1 + 2 + 3 +   1 + 2 + 3 +   1 + 2 + 3 + 
E|-------------|-------------|-------------|-------------|
B|-------------|-------------|-------------|-------------|
G|-------------|-------------|-------------|-------------|
D|-------------|-------6-6---|-------------|-------xx2-xx|
A|-7-7-7-7-7---|-7-7-7-x-x---|-7-7-7-7-7---|-7-7-7-xx2-xx|
D|-6-6-6-7-7---|-9-9-9-4-4---|-6-6-6-7-7---|-9-9-9-xx2-xx|


   1 + 2 + 3 +   1 + 2 + 3 +   1 + 2 + 3 +   1 + 2 + 3 + 
E|-------------|-------------|-------------|-------------|
B|-------9-----|-9---9---7---|-------9-----|-9---7h9p7\--|
G|-9---9-----9-|-------------|-9---9-----9-|-------------|
D|-------------|-------------|-------------|-------------|
A|-------------|-------------|-------------|-------------|
D|-------------|-------------|-------------|-------------|
 |
 |
 | 1 + 2 + 3 +   1 + 2 + 3 +   1 + 2 + 3 +   1 + 2 + 3 + 
E|-------------|-------------|-------------|-------------|
B|-------------|-------------|-------------|-------------|
G|-------------|-------------|-------------|-------------|
D|-------------|-------6-6---|-------------|-------xx2-xx|
A|-7-7-7-7-7---|-7-7-7-x-x---|-7-7-7-7-7---|-7-7-7-xx2-xx|
D|-6-6-6-7-7---|-9-9-9-4-4---|-6-6-6-7-7---|-9-9-9-xx2-xx|


Verse

   1 + 2 + 3 +   1 + 2 + 3 +   1 + 2 + 3 +   1 + 2 + 3 + 
E|-------------|-------------|-------------|-------------|
B|-------------|-------------|-------------|-------------|
G|-9-9-9-9-9---|-9-9-9-e-e---|-9-9-9-9-9---|-9-9-9-xx9-xx|
D|-6-6-6-7-7---|-9-9-9-e-e---|-6-6-6-7-7---|-9-9-9-xx9-xx|
A|-------------|-------------|-------------|-------xx7-xx|
D|-------------|-------------|-------------|-------------|
 | . . . . .     . . . . .     . . . . .     . . . 
 |
 | 1 + 2 + 3 +   1 + 2 + 3 +   1 + 2 + 3 +   1 + 2 + 3 + 
E|-------------|-------------|-------------|-------------|
B|-------------|-------------|-------------|-------------|
G|-------------|-------------|-------------|-------------|
D|-------------|-------------|-------------|-------xx2-xx|
A|-7-7-7-7-7---|-7-7-7/9-9---|-7-7-7-7-7---|-7-7-7-xx2-xx|
D|-6-6-6-7-7---|-9-9-9/e-e---|-6-6-6-7-7---|-9-9-9-xx2-xx|
   . . . . .     . . . . .     . . . . .     . . . 


   1 + 2 + 3 +   1 + 2 + 3 +   1 + 2 + 3 +   1 + 2 + 3 + 
E|-------------|-------------|-------------|-------------|
B|-------------|-------------|-------------|-------------|
G|-9-9-9-9-9---|-9-9-9-e-e---|-9-9-9-9-9---|-9-9-9-xx9-xx|
D|-6-6-6-7-7---|-9-9-9-e-e---|-6-6-6-7-7---|-9-9-9-xx9-xx|
A|-------------|-------------|-------------|-------xx7-xx|
D|-------------|-------------|-------------|-------------|
 | . . . . .     . . . . .     . . . . .     . . . 
 |
 | 1 + 2 + 3 +   1 + 2 + 3 +   1 + 2 + 3 +   1 + 2 + 3 + 
E|-------------|-------------|-------------|-------------|
B|-------------|-------------|-------------|-------------|
G|-------------|-------------|-------------|-------------|
D|-------------|-------------|-------------|-------xx2-xx|
A|-7-7-7-7-7---|-7-7-7/9-9---|-7-7-7-7-7---|-7-7-7-xx2-xx|
D|-6-6-6-7-7---|-9-9-9/e-e---|-6-6-6-7-7---|-9-9-9-xx2-xx|
   . . . . .     . . . . .     . . . . .     . . . 


   1 + 2 + 3 +   1 + 2 + 3 +   1 + 2 + 3 +   1 + 2 + 3 + 
E|-------------|-------------|-------------|-------------|
B|-------------|-------------|-------------|-------------|
G|-9-9-9-9-9---|-9-9-9-e-e---|-9-9-9-9-9---|-9-9-9-xx9-xx|
D|-6-6-6-7-7---|-9-9-9-e-e---|-6-6-6-7-7---|-9-9-9-xx9-xx|
A|-------------|-------------|-------------|-------xx7-xx|
D|-------------|-------------|-------------|-------------|
 | . . . . .     . . . . .     . . . . .     . . . 
 |
 | 1 + 2 + 3 +   1 + 2 + 3 +   1 + 2 + 3 +   1 + 2 + 3 + 
E|-------------|-------------|-------------|-------------|
B|-------------|-------------|-------------|-------------|
G|-------------|-------------|-------------|-------------|
D|-------------|-------------|-------------|-------xx2-xx|
A|-7-7-7-7-7---|-7-7-7/9-9---|-7-7-7-7-7---|-7-7-7-xx2-xx|
D|-6-6-6-7-7---|-9-9-9/e-e---|-6-6-6-7-7---|-9-9-9-xx2-xx|
   . . . . .     . . . . .     . . . . .     . . . 


   1 + 2 + 3 +   1 + 2 + 3 +   1 + 2 + 3 +   1 + 2 + 3 + 
E|-------------|-------------|-------------|-------------|
B|-------------|-------------|-------------|-------------|
G|-9-9-9-9-9---|-9-9-9-e-e---|-9-9-9-9-9---|-9-9-9/13----|
D|-6-6-6-7-7---|-9-9-9-e-e---|-6-6-6-7-7---|-9-9-9/11----|
A|-------------|-------------|-------------|-7-7-7/11----|
D|-------------|-------------|-------------|-------------|
 | . . . . .     . . . . .
 |
 | 1 + 2 + 3 +   1 + 2 + 3 +   1 + 2 + 3 +   1 + 2 + 3 + 
E|-------------|-------------|-------------|-------------|
B|-------------|-------------|-------------|-------------|
G|-------------|-------------|-------------|-------------|
D|-------------|-------------|-------------|-------------|
A|-7-7-7-7-7---|-7-7-7/9-9---|-7-7-7-7-7---|-------------|
D|-6-6-6-7-7---|-9-9-9/e-e---|-6-6-6-7-7---|-------------|
   . . . . .     . . . . .


Chorus

   1 + 2 + 3 + 4 +   1 + 2 + 3 + 4 +   1 + 2 + 3 + 4 +   1 + 2 + 3 + 4 +
E|-----------------|-----------------|-----------------|-----------------|
B|-5---5-5---5-5-5-|-0---0-0---0-0-0-|-----------------|-----------------|
G|-6---6-6---6-6-6-|-2---2-2---2-2-2-|-4---4-4---4-4-4-|-4---4-4---4-4-4-|
D|-6---6-6---6-6-6-|-2---2-2---2-2-2-|-2---2-2---2-2-2-|-2---2-2---2-2-2-|
A|-4---4-4---4-4-4-|-0---0-0---0-0-0-|-2---2-2---2-2-2-|-2---2-2---2-2-2-|
D|-----------------|-----------------|-2---2-2---2-2-2-|-2---2-2---2-2-2-|
 |
 |
 | 1 + 2 + 3 + 4 +   1 + 2 + 3 + 4 +   1 + 2 + 3 + 4 +   1 + 2 + 3 + 4 +
E|-----------------|-----------------|-----------------|-----------------|
B|-5---5-5---5-5-5-|-0---0-0---0-0-0-|-----------------|-----------------|
G|-6---6-6---6-6-6-|-2---2-2---2-2-2-|-4---4-4---4-4-4-|-4---4-4---4-4-4-|
D|-6---6-6---6-6-6-|-2---2-2---2-2-2-|-2---2-2---2-2-2-|-2---2-2---2-2-2-|
A|-4---4-4---4-4-4-|-0---0-0---0-0-0-|-2---2-2---2-2-2-|-2---2-2---2-2-2-|
D|-----------------|-----------------|-2---2-2---2-2-2-|-2---2-2---2-2-2-|


   1 + 2 + 3 + 4 +   1 + 2 + 3 + 4 +   1 + 2 + 3 + 4 +   1 + 2 + 3 + 4 +
E|-----------------|-----------------|-----------------|-----------------|
B|-5---5-5---5-5-5-|-0---0-0---0-0-0-|-----------------|-4-4-4-4-4-4-4-4-|
G|-6---6-6---6-6-6-|-2---2-2---2-2-2-|-4---4-4---4-4-4-|-4-4-4-4-4-4-4-4-|
D|-6---6-6---6-6-6-|-2---2-2---2-2-2-|-2---2-2---2-2-2-|-4-4-4-4-4-4-4-4-|
A|-4---4-4---4-4-4-|-0---0-0---0-0-0-|-2---2-2---2-2-2-|-2-2-2-2-2-2-2-2-|
D|-----------------|-----------------|-2---2-2---2-2-2-|-----------------|
 |
 |
 | 1 + 2 + 3 + 4 +   1 + 2 + 3 + 4 +   1 + 2 + 3 + 4 +   1 + 2 + 3 + 4 +
E|-----------------|-----------------|-----------------|-----------------|
B|-5---5-5---5-5-5-|-0---0-0---0-0-0-|-----------------|-4-4-4-4-4-4-4-4-|
G|-6---6-6---6-6-6-|-2---2-2---2-2-2-|-4---4-4---4-4-4-|-4-4-4-4-4-4-4-4-|
D|-6---6-6---6-6-6-|-2---2-2---2-2-2-|-2---2-2---2-2-2-|-4-4-4-4-4-4-4-4-|
A|-4---4-4---4-4-4-|-0---0-0---0-0-0-|-2---2-2---2-2-2-|-2-2-2-2-2-2-2-2-|
D|-----------------|-----------------|-2---2-2---2-2-2-|-----------------|


   1 + 2 + 3 + 4 +   1 + 2 + 3 + 4 +   1 + 2 + 3 + 4 +   1 + 2 + 3 + 4 +
E|-----------------|-----------------|-----------------|-----------------|
B|-5---5-5---5-5-5-|-0---0-0---0-0-0-|-----------------|-----------------|
G|-6---6-6---6-6-6-|-2---2-2---2-2-2-|-4---4-4---4-4-4-|-4---4-4---4-4-4-|
D|-6---6-6---6-6-6-|-2---2-2---2-2-2-|-2---2-2---2-2-2-|-2---2-2---2-2-2-|
A|-4---4-4---4-4-4-|-0---0-0---0-0-0-|-2---2-2---2-2-2-|-2---2-2---2-2-2-|
D|-----------------|-----------------|-2---2-2---2-2-2-|-2---2-2---2-2-2-|
 |
 |
 | 1 + 2 + 3 + 4 +   1 + 2 + 3 + 4 +   1 + 2 + 3 + 4 +   1 + 2 + 3 + 4 +
E|-----------------|-----------------|-----------------|-----------------|
B|-5---5-5---5-5-5-|-0---0-0---0-0-0-|-----------------|-----------------|
G|-6---6-6---6-6-6-|-2---2-2---2-2-2-|-4---4-4---4-4-4-|-4---4-4---4-4-4-|
D|-6---6-6---6-6-6-|-2---2-2---2-2-2-|-2---2-2---2-2-2-|-2---2-2---2-2-2-|
A|-4---4-4---4-4-4-|-0---0-0---0-0-0-|-2---2-2---2-2-2-|-2---2-2---2-2-2-|
D|-----------------|-----------------|-2---2-2---2-2-2-|-2---2-2---2-2-2-|


   1 + 2 + 3 + 4 +   1 + 2 + 3 + 4 +   1 + 2 + 3 + 4 +   1 + 2 + 3 + 4 +
E|-----------------|-----------------|-----------------|-----------------|
B|-5---5-5---5-5-5-|-0---0-0---0-0---|-----------------|-4-4-4-4-4-4-4-4-|
G|-6---6-6---6-6-6-|-2---2-2---2-2-1-|-2---2-2---2-2-1-|-4-4-4-4-4-4-4-4-|
D|-6---6-6---6-6-6-|-2---2-2---2-2---|-0---0-0---0-0-0-|-4-4-4-4-4-4-4-4-|
A|-4---4-4---4-4-4-|-0---0-0---0-0---|-0---0-0---0-0-0-|-2-2-2-2-2-2-2-2-|
D|-----------------|-----------------|-0---0-0---0-0-0-|-----------------|
 |
 |
 | 1 + 2 + 3 + 4 +   1 + 2 + 3 + 4 +   1 + 2 + 3 + 4 +   1 + 2 + 3 + 4 +
E|-----------------|-----------------|-----------------|-----------------|
B|-5---5-5---5-5-5-|-0---0-0---0-0---|-----------------|-4-4-4-4-4-4-4-4-|
G|-6---6-6---6-6-6-|-2---2-2---2-2-1-|-2---2-2---2-2-1-|-4-4-4-4-4-4-4-4-|
D|-6---6-6---6-6-6-|-2---2-2---2-2---|-0---0-0---0-0-0-|-4-4-4-4-4-4-4-4-|
A|-4---4-4---4-4-4-|-0---0-0---0-0---|-0---0-0---0-0-0-|-2-2-2-2-2-2-2-2-|
D|-----------------|-----------------|-0---0-0---0-0-0-|-----------------|


Post-Chorus

   1 + 2 + 3 +   1 + 2 + 3 +   1 + 2 + 3 +   1 + 2 + 3 + 
E|-------------|-------------|-------------|-------------|
B|-------9-----|-9---9---7---|-------9-----|-9---7h9p7---|
G|-9---9-----9-|-------------|-9---9-----9-|-------------|
D|-------------|-------------|-------------|-------------|
A|-------------|-------------|-------------|-------------|
D|-------------|-------------|-------------|-------------|
 |
 |
 | 1 + 2 + 3 +   1 + 2 + 3 +   1 + 2 + 3 +   1 + 2 + 3 + 
E|-------------|-------------|-------------|-------------|
B|-------------|-------------|-------------|-------------|
G|-------------|-------------|-------------|-------------|
D|-------------|-------6-6---|-------------|-------xx2-xx|
A|-7-7-7-7-7---|-7-7-7-x-x---|-7-7-7-7-7---|-7-7-7-xx2-xx|
D|-6-6-6-7-7---|-9-9-9-4-4---|-6-6-6-7-7---|-9-9-9-xx2-xx|


   1 + 2 + 3 +   1 + 2 + 3 +   1 + 2 + 3 +   1 + 2 + 3 + 
E|-------------|-------------|-------------|-------------|
B|-------9-----|-9---9---7---|-------9-----|-9---7h9p7\--|
G|-9---9-----9-|-------------|-9---9-----9-|-------------|
D|-------------|-------------|-------------|-------------|
A|-------------|-------------|-------------|-------------|
D|-------------|-------------|-------------|-------------|
 |
 |
 | 1 + 2 + 3 +   1 + 2 + 3 +   1 + 2 + 3 +   1 + 2 + 3 + 
E|-------------|-------------|-------------|-------------|
B|-------------|-------------|-------------|-------------|
G|-------------|-------------|-------------|-------------|
D|-------------|-------6-6---|-------------|-------xx2-xx|
A|-7-7-7-7-7---|-7-7-7-x-x---|-7-7-7-7-7---|-7-7-7-xx2-xx|
D|-6-6-6-7-7---|-9-9-9-4-4---|-6-6-6-7-7---|-9-9-9-xx2-xx|


Verse

   1 + 2 + 3 +   1 + 2 + 3 +   1 + 2 + 3 +   1 + 2 + 3 + 
E|-------------|-------------|-------------|-------------|
B|-------------|-------------|-------------|-------------|
G|-9-9-9-9-9---|-9-9-9-e-e---|-9-9-9-9-9---|-9-9-9-xx9-xx|
D|-6-6-6-7-7---|-9-9-9-e-e---|-6-6-6-7-7---|-9-9-9-xx9-xx|
A|-------------|-------------|-------------|-------xx7-xx|
D|-------------|-------------|-------------|-------------|
 | . . . . .     . . . . .     . . . . .     . . . 
 |
 | 1 + 2 + 3 +   1 + 2 + 3 +   1 + 2 + 3 +   1 + 2 + 3 + 
E|-------------|-------------|-------------|-------------|
B|-------------|-------------|-------------|-------------|
G|-------------|-------------|-------------|-------------|
D|-------------|-------------|-------------|-------xx2-xx|
A|-7-7-7-7-7---|-7-7-7/9-9---|-7-7-7-7-7---|-7-7-7-xx2-xx|
D|-6-6-6-7-7---|-9-9-9/e-e---|-6-6-6-7-7---|-9-9-9-xx2-xx|
   . . . . .     . . . . .     . . . . .     . . . 


   1 + 2 + 3 +   1 + 2 + 3 +   1 + 2 + 3 +   1 + 2 + 3 + 
E|-------------|-------------|-------------|-------------|
B|-------------|-------------|-------------|-------------|
G|-9-9-9-9-9---|-9-9-9-e-e---|-9-9-9-9-9---|-9-9-9-xx9-xx|
D|-6-6-6-7-7---|-9-9-9-e-e---|-6-6-6-7-7---|-9-9-9-xx9-xx|
A|-------------|-------------|-------------|-------xx7-xx|
D|-------------|-------------|-------------|-------------|
 | . . . . .     . . . . .     . . . . .     . . . 
 |
 | 1 + 2 + 3 +   1 + 2 + 3 +   1 + 2 + 3 +   1 + 2 + 3 + 
E|-------------|-------------|-------------|-------------|
B|-------------|-------------|-------------|-------------|
G|-------------|-------------|-------------|-------------|
D|-------------|-------------|-------------|-------xx2-xx|
A|-7-7-7-7-7---|-7-7-7/9-9---|-7-7-7-7-7---|-7-7-7-xx2-xx|
D|-6-6-6-7-7---|-9-9-9/e-e---|-6-6-6-7-7---|-9-9-9-xx2-xx|
   . . . . .     . . . . .     . . . . .     . . . 


   1 + 2 + 3 +   1 + 2 + 3 +   1 + 2 + 3 +   1 + 2 + 3 + 
E|-------------|-------------|-------------|-------------|
B|-------------|-------------|-------------|-------------|
G|-9-9-9-9-9---|-9-9-9-e-e---|-9-9-9-9-9---|-9-9-9-xx9-xx|
D|-6-6-6-7-7---|-9-9-9-e-e---|-6-6-6-7-7---|-9-9-9-xx9-xx|
A|-------------|-------------|-------------|-------xx7-xx|
D|-------------|-------------|-------------|-------------|
 | . . . . .     . . . . .     . . . . .     . . . 
 |
 | 1 + 2 + 3 +   1 + 2 + 3 +   1 + 2 + 3 +   1 + 2 + 3 + 
E|-------------|-------------|-------------|-------------|
B|-------------|-------------|-------------|-------------|
G|-------------|-------------|-------------|-------------|
D|-------------|-------------|-------------|-------xx2-xx|
A|-7-7-7-7-7---|-7-7-7/9-9---|-7-7-7-7-7---|-7-7-7-xx2-xx|
D|-6-6-6-7-7---|-9-9-9/e-e---|-6-6-6-7-7---|-9-9-9-xx2-xx|
   . . . . .     . . . . .     . . . . .     . . . 


   1 + 2 + 3 +   1 + 2 + 3 +   1 + 2 + 3 +   1 + 2 + 3 + 
E|-------------|-------------|-------------|-------------|
B|-------------|-------------|-------------|-------------|
G|-9-9-9-9-9---|-9-9-9-e-e---|-9-9-9-9-9---|-9-9-9-xx9-xx|
D|-6-6-6-7-7---|-9-9-9-e-e---|-6-6-6-7-7---|-9-9-9-xx9-xx|
A|-------------|-------------|-------------|-------xx7-xx|
D|-------------|-------------|-------------|-------------|
 | . . . . .     . . . . .
 |
 | 1 + 2 + 3 +   1 + 2 + 3 +   1 + 2 + 3 +   1 + 2 + 3 + 
E|-------------|-------------|-------------|-------------|
B|-------------|-------------|-------------|-------------|
G|-------------|-------------|-------------|-------------|
D|-------------|-------------|-------------|-------xx2-xx|
A|-7-7-7-7-7---|-7-7-7/9-9---|-7-7-7-7-7---|-7-7-7-xx2-xx|
D|-6-6-6-7-7---|-9-9-9/e-e---|-6-6-6-7-7---|-9-9-9-xx2-xx|
   . . . . .     . . . . .


Chorus

   1 + 2 + 3 + 4 +   1 + 2 + 3 + 4 +   1 + 2 + 3 + 4 +   1 + 2 + 3 + 4 +
E|-----------------|-----------------|-----------------|-----------------|
B|-5---5-5---5-5-5-|-0---0-0---0-0-0-|-----------------|-----------------|
G|-6---6-6---6-6-6-|-2---2-2---2-2-2-|-4---4-4---4-4-4-|-4---4-4---4-4-4-|
D|-6---6-6---6-6-6-|-2---2-2---2-2-2-|-2---2-2---2-2-2-|-2---2-2---2-2-2-|
A|-4---4-4---4-4-4-|-0---0-0---0-0-0-|-2---2-2---2-2-2-|-2---2-2---2-2-2-|
D|-----------------|-----------------|-2---2-2---2-2-2-|-2---2-2---2-2-2-|
 |
 |
 | 1 + 2 + 3 + 4 +   1 + 2 + 3 + 4 +   1 + 2 + 3 + 4 +   1 + 2 + 3 + 4 +
E|-----------------|-----------------|-----------------|-----------------|
B|-5---5-5---5-5-5-|-0---0-0---0-0-0-|-----------------|-----------------|
G|-6---6-6---6-6-6-|-2---2-2---2-2-2-|-4---4-4---4-4-4-|-4---4-4---4-4-4-|
D|-6---6-6---6-6-6-|-2---2-2---2-2-2-|-2---2-2---2-2-2-|-2---2-2---2-2-2-|
A|-4---4-4---4-4-4-|-0---0-0---0-0-0-|-2---2-2---2-2-2-|-2---2-2---2-2-2-|
D|-----------------|-----------------|-2---2-2---2-2-2-|-2---2-2---2-2-2-|


   1 + 2 + 3 + 4 +   1 + 2 + 3 + 4 +   1 + 2 + 3 + 4 +   1 + 2 + 3 + 4 +
E|-----------------|-----------------|-----------------|-----------------|
B|-5---5-5---5-5-5-|-0---0-0---0-0-0-|-----------------|-4-4-4-4-4-4-4-4-|
G|-6---6-6---6-6-6-|-2---2-2---2-2-2-|-4---4-4---4-4-4-|-4-4-4-4-4-4-4-4-|
D|-6---6-6---6-6-6-|-2---2-2---2-2-2-|-2---2-2---2-2-2-|-4-4-4-4-4-4-4-4-|
A|-4---4-4---4-4-4-|-0---0-0---0-0-0-|-2---2-2---2-2-2-|-2-2-2-2-2-2-2-2-|
D|-----------------|-----------------|-2---2-2---2-2-2-|-----------------|
 |
 |
 | 1 + 2 + 3 + 4 +   1 + 2 + 3 + 4 +   1 + 2 + 3 + 4 +   1 + 2 + 3 + 4 +
E|-----------------|-----------------|-----------------|-----------------|
B|-5---5-5---5-5-5-|-0---0-0---0-0-0-|-----------------|-4-4-4-4-4-4-4-4-|
G|-6---6-6---6-6-6-|-2---2-2---2-2-2-|-4---4-4---4-4-4-|-4-4-4-4-4-4-4-4-|
D|-6---6-6---6-6-6-|-2---2-2---2-2-2-|-2---2-2---2-2-2-|-4-4-4-4-4-4-4-4-|
A|-4---4-4---4-4-4-|-0---0-0---0-0-0-|-2---2-2---2-2-2-|-2-2-2-2-2-2-2-2-|
D|-----------------|-----------------|-2---2-2---2-2-2-|-----------------|


   1 + 2 + 3 + 4 +   1 + 2 + 3 + 4 +   1 + 2 + 3 + 4 +   1 + 2 + 3 + 4 +
E|-----------------|-----------------|-----------------|-----------------|
B|-5---5-5---5-5-5-|-0---0-0---0-0-0-|-----------------|-----------------|
G|-6---6-6---6-6-6-|-2---2-2---2-2-2-|-4---4-4---4-4-4-|-4---4-4---4-4-4-|
D|-6---6-6---6-6-6-|-2---2-2---2-2-2-|-2---2-2---2-2-2-|-2---2-2---2-2-2-|
A|-4---4-4---4-4-4-|-0---0-0---0-0-0-|-2---2-2---2-2-2-|-2---2-2---2-2-2-|
D|-----------------|-----------------|-2---2-2---2-2-2-|-2---2-2---2-2-2-|
 |
 |
 | 1 + 2 + 3 + 4 +   1 + 2 + 3 + 4 +   1 + 2 + 3 + 4 +   1 + 2 + 3 + 4 +
E|-----------------|-----------------|-----------------|-----------------|
B|-5---5-5---5-5-5-|-0---0-0---0-0-0-|-----------------|-----------------|
G|-6---6-6---6-6-6-|-2---2-2---2-2-2-|-4---4-4---4-4-4-|-4---4-4---4-4-4-|
D|-6---6-6---6-6-6-|-2---2-2---2-2-2-|-2---2-2---2-2-2-|-2---2-2---2-2-2-|
A|-4---4-4---4-4-4-|-0---0-0---0-0-0-|-2---2-2---2-2-2-|-2---2-2---2-2-2-|
D|-----------------|-----------------|-2---2-2---2-2-2-|-2---2-2---2-2-2-|


   1 + 2 + 3 + 4 +   1 + 2 + 3 + 4 +   1 + 2 + 3 + 4 +   1 + 2 + 3 + 4 +
E|-----------------|-----------------|-----------------|-----------------|
B|-5---5-5---5-5-5-|-0---0-0---0-0---|-----------------|-4-4-4-4-4-4-4-4-|
G|-6---6-6---6-6-6-|-2---2-2---2-2-1-|-2---2-2---2-2-1-|-4-4-4-4-4-4-4-4-|
D|-6---6-6---6-6-6-|-2---2-2---2-2---|-0---0-0---0-0-0-|-4-4-4-4-4-4-4-4-|
A|-4---4-4---4-4-4-|-0---0-0---0-0---|-0---0-0---0-0-0-|-2-2-2-2-2-2-2-2-|
D|-----------------|-----------------|-0---0-0---0-0-0-|-----------------|
 |
 |
 | 1 + 2 + 3 + 4 +   1 + 2 + 3 + 4 +   1 + 2 + 3 + 4 +   1 + 2 + 3 + 4 +
E|-----------------|-----------------|-----------------|-----------------|
B|-5---5-5---5-5-5-|-0---0-0---0-0---|-----------------|-4-4-4-4-4-4-4-4-|
G|-6---6-6---6-6-6-|-2---2-2---2-2-1-|-2---2-2---2-2-1-|-4-4-4-4-4-4-4-4-|
D|-6---6-6---6-6-6-|-2---2-2---2-2---|-0---0-0---0-0-0-|-4-4-4-4-4-4-4-4-|
A|-4---4-4---4-4-4-|-0---0-0---0-0---|-0---0-0---0-0-0-|-2-2-2-2-2-2-2-2-|
D|-----------------|-----------------|-0---0-0---0-0-0-|-----------------|


Mini-Solo

   1 + 2 + 3 + 
E|-------------|
B|---9---9-----|
G|/9---9---9\--|
D|-------------|
A|-------------|
D|-------------|
 |
 |
 | 1 + 2 + 3 +
E|-------------|
B|-R-----------|
G|----E--------|
D|-------S-----|
A|----------T--|
D|-------------|


Bridge

   1 + 2 + 3 +   1 + 2 + 3 +   1 + 2 + 3 +   1 + 2 + 3 + 
E|-------------|-------------|-------------|-------------|
B|-------9-----|-9---9---7---|-------9-----|-9---7h9p7---|
G|-9---9-----9-|-------------|-9---9-----9-|-------------|
D|-------------|-------------|-------------|-------------|
A|-------------|-------------|-------------|-------------|
D|-------------|-------------|-------------|-------------|
 |
 |
 | 1 + 2 + 3 +   1 + 2 + 3 +   1 + 2 + 3 +   1 + 2 + 3 + 
E|-------------|-------------|-------------|-------------|
B|-------------|-------------|-------------|-------------|
G|-------------|-------------|-------------|-------------|
D|-------------|-------6-6---|-------------|-------xx2-xx|
A|-7-7-7-7-7---|-7-7-7-x-x---|-7-7-7-7-7---|-7-7-7-xx2-xx|
D|-6-6-6-7-7---|-9-9-9-4-4---|-6-6-6-7-7---|-9-9-9-xx2-xx|


   1 + 2 + 3 +   1 + 2 + 3 +   1 + 2 + 3 +   1 + 2 + 3 + 
E|-------------|-------------|-------------|-------------|
B|-------9-----|-9---9---7---|-------9-----|-9---7h9p7\--|
G|-9---9-----9-|-------------|-9---9-----9-|-------------|
D|-------------|-------------|-------------|-------------|
A|-------------|-------------|-------------|-------------|
D|-------------|-------------|-------------|-------------|
 |
 |
 | 1 + 2 + 3 +   1 + 2 + 3 +   1 + 2 + 3 +   1 + 2 + 3 + 
E|-------------|-------------|-------------|-------------|
B|-------------|-------------|-------------|-------------|
G|-------------|-------------|-------------|-------------|
D|-------------|-------6-6---|-------------|-------xx2-xx|
A|-7-7-7-7-7---|-7-7-7-x-x---|-7-7-7-7-7---|-7-7-7-xx2-xx|
D|-6-6-6-7-7---|-9-9-9-4-4---|-6-6-6-7-7---|-9-9-9-xx2-xx|


Chorus

   1 + 2 + 3 + 4 +   1 + 2 + 3 + 4 +   1 + 2 + 3 + 4 +   1 + 2 + 3 + 4 +
E|-----------------|-----------------|-----------------|-----------------|
B|-5---5-5---5-5-5-|-0---0-0---0-0-0-|-----------------|-----------------|
G|-6---6-6---6-6-6-|-2---2-2---2-2-2-|-4---4-4---4-4-4-|-4---4-4---4-4-4-|
D|-6---6-6---6-6-6-|-2---2-2---2-2-2-|-2---2-2---2-2-2-|-2---2-2---2-2-2-|
A|-4---4-4---4-4-4-|-0---0-0---0-0-0-|-2---2-2---2-2-2-|-2---2-2---2-2-2-|
D|-----------------|-----------------|-2---2-2---2-2-2-|-2---2-2---2-2-2-|
 |
 |
 | 1 + 2 + 3 + 4 +   1 + 2 + 3 + 4 +   1 + 2 + 3 + 4 +   1 + 2 + 3 + 4 +
E|-----------------|-----------------|-----------------|-----------------|
B|-5---5-5---5-5-5-|-0---0-0---0-0-0-|-----------------|-----------------|
G|-6---6-6---6-6-6-|-2---2-2---2-2-2-|-4---4-4---4-4-4-|-4---4-4---4-4-4-|
D|-6---6-6---6-6-6-|-2---2-2---2-2-2-|-2---2-2---2-2-2-|-2---2-2---2-2-2-|
A|-4---4-4---4-4-4-|-0---0-0---0-0-0-|-2---2-2---2-2-2-|-2---2-2---2-2-2-|
D|-----------------|-----------------|-2---2-2---2-2-2-|-2---2-2---2-2-2-|


   1 + 2 + 3 + 4 +   1 + 2 + 3 + 4 +   1 + 2 + 3 + 4 +   1 + 2 + 3 + 4 +
E|-----------------|-----------------|-----------------|-----------------|
B|-5---5-5---5-5-5-|-0---0-0---0-0-0-|-----------------|-4-4-4-4-4-4-4-4-|
G|-6---6-6---6-6-6-|-2---2-2---2-2-2-|-4---4-4---4-4-4-|-4-4-4-4-4-4-4-4-|
D|-6---6-6---6-6-6-|-2---2-2---2-2-2-|-2---2-2---2-2-2-|-4-4-4-4-4-4-4-4-|
A|-4---4-4---4-4-4-|-0---0-0---0-0-0-|-2---2-2---2-2-2-|-2-2-2-2-2-2-2-2-|
D|-----------------|-----------------|-2---2-2---2-2-2-|-----------------|
 |
 |
 | 1 + 2 + 3 + 4 +   1 + 2 + 3 + 4 +   1 + 2 + 3 + 4 +   1 + 2 + 3 + 4 +
E|-----------------|-----------------|-----------------|-----------------|
B|-5---5-5---5-5-5-|-0---0-0---0-0-0-|-----------------|-4-4-4-4-4-4-4-4-|
G|-6---6-6---6-6-6-|-2---2-2---2-2-2-|-4---4-4---4-4-4-|-4-4-4-4-4-4-4-4-|
D|-6---6-6---6-6-6-|-2---2-2---2-2-2-|-2---2-2---2-2-2-|-4-4-4-4-4-4-4-4-|
A|-4---4-4---4-4-4-|-0---0-0---0-0-0-|-2---2-2---2-2-2-|-2-2-2-2-2-2-2-2-|
D|-----------------|-----------------|-2---2-2---2-2-2-|-----------------|


   1 + 2 + 3 + 4 +   1 + 2 + 3 + 4 +   1 + 2 + 3 + 4 +   1 + 2 + 3 + 4 +
E|-----------------|-----------------|-----------------|-----------------|
B|-5---5-5---5-5-5-|-0---0-0---0-0-0-|-----------------|-----------------|
G|-6---6-6---6-6-6-|-2---2-2---2-2-2-|-4---4-4---4-4-4-|-4---4-4---4-4-4-|
D|-6---6-6---6-6-6-|-2---2-2---2-2-2-|-2---2-2---2-2-2-|-2---2-2---2-2-2-|
A|-4---4-4---4-4-4-|-0---0-0---0-0-0-|-2---2-2---2-2-2-|-2---2-2---2-2-2-|
D|-----------------|-----------------|-2---2-2---2-2-2-|-2---2-2---2-2-2-|
 |
 |
 | 1 + 2 + 3 + 4 +   1 + 2 + 3 + 4 +   1 + 2 + 3 + 4 +   1 + 2 + 3 + 4 +
E|-----------------|-----------------|-----------------|-----------------|
B|-5---5-5---5-5-5-|-0---0-0---0-0-0-|-----------------|-----------------|
G|-6---6-6---6-6-6-|-2---2-2---2-2-2-|-4---4-4---4-4-4-|-4---4-4---4-4-4-|
D|-6---6-6---6-6-6-|-2---2-2---2-2-2-|-2---2-2---2-2-2-|-2---2-2---2-2-2-|
A|-4---4-4---4-4-4-|-0---0-0---0-0-0-|-2---2-2---2-2-2-|-2---2-2---2-2-2-|
D|-----------------|-----------------|-2---2-2---2-2-2-|-2---2-2---2-2-2-|


   1 + 2 + 3 + 4 +   1 + 2 + 3 + 4 +   1 + 2 + 3 + 4 +   1 + 2 + 3 + 4 +
E|-----------------|-----------------|-----------------|-----------------|
B|-5---5-5---5-5-5-|-0---0-0---0-0---|-----------------|-4-4-4-4-4-4-4-4-|
G|-6---6-6---6-6-6-|-2---2-2---2-2-1-|-2-2-2-2-2-2-2-1-|-4-4-4-4-4-4-4-4-|
D|-6---6-6---6-6-6-|-2---2-2---2-2---|-0-0-0-0-0-0-0-0-|-4-4-4-4-4-4-4-4-|
A|-4---4-4---4-4-4-|-0---0-0---0-0---|-0-0-0-0-0-0-0-0-|-2-2-2-2-2-2-2-2-|
D|-----------------|-----------------|-0-0-0-0-0-0-0-0-|-----------------|
 |                                     . . . . . . . 
 |
 | 1 + 2 + 3 + 4 +   1 + 2 + 3 + 4 +   1 + 2 + 3 + 4 +   1 + 2 + 3 + 4 +
E|-----------------|-----------------|-----------------|-----------------|
B|-5---5-5---5-5-5-|-0---0-0---0-0---|-----------------|-4-4-4-4-4-4-4-4-|
G|-6---6-6---6-6-6-|-2---2-2---2-2-1-|-2-2-2-2-2-2-2-1-|-4-4-4-4-4-4-4-4-|
D|-6---6-6---6-6-6-|-2---2-2---2-2---|-0-0-0-0-0-0-0-0-|-4-4-4-4-4-4-4-4-|
A|-4---4-4---4-4-4-|-0---0-0---0-0---|-0-0-0-0-0-0-0-0-|-2-2-2-2-2-2-2-2-|
D|-----------------|-----------------|-0-0-0-0-0-0-0-0-|-----------------|
                                       . . . . . . . 


   1 + 2 + 3 + 4 +   1 + 2 + 3 + 4 +   1 + 2 + 3 + 4 +   1 + 2 + 3 + 4 +
E|-----------------|-----------------|-----------------|-----------------|
B|-----------------|-----------------|-----------------|-4-4-4-4-4-4-4-4-|
G|-4---4-4---4-4-4-|-4---4-4---4-4-1-|-2---2-2---2-2-1-|-4-4-4-4-4-4-4-4-|
D|-2---2-2---2-2-2-|-2---2-2---2-2---|-0---0-0---0-0-0-|-4-4-4-4-4-4-4-4-|
A|-2---2-2---2-2-2-|-0---0-0---0-0---|-0---0-0---0-0-0-|-2-2-2-2-2-2-2-2-|
D|-2---2-2---2-2-2-|-----------------|-0---0-0---0-0-0-|-----------------|
 |
 |
 | 1 + 2 + 3 + 4 +   1 + 2 + 3 + 4 +   1 + 2 + 3 + 4 +   1 + 2 + 3 + 4 +
E|-----------------|-----------------|-----------------|-----------------|
B|-----------------|-----------------|-----------------|-4-4-4-4-4-4-4-4-|
G|-4---4-4---4-4-4-|-4---4-4---4-4-1-|-2---2-2---2-2-1-|-4-4-4-4-4-4-4-4-|
D|-2---2-2---2-2-2-|-2---2-2---2-2---|-0---0-0---0-0-0-|-4-4-4-4-4-4-4-4-|
A|-2---2-2---2-2-2-|-0---0-0---0-0---|-0---0-0---0-0-0-|-2-2-2-2-2-2-2-2-|
D|-2---2-2---2-2-2-|-----------------|-0---0-0---0-0-0-|-----------------|


   1 + 2 + 3 + 4 +   1 + 2 + 3 + 4 +   1 + 2 + 3 + 4 +   1 + 2 + 3 + 4 +
E|-----------------|-----------------|-----------------|-----------------|
B|-----------------|-----------------|-----------------|-4-4-4-4-4-------|
G|-4---4-4---4-4-4-|-4---4-4---4-4-1-|-2---2-2---2-2-1-|-4-4-4-4-4-------|
D|-2---2-2---2-2-2-|-2---2-2---2-2---|-0---0-0---0-0-0-|-4-4-4-4-4-------|
A|-2---2-2---2-2-2-|-0---0-0---0-0---|-0---0-0---0-0-0-|-2-2-2-2-2-------|
D|-2---2-2---2-2-2-|-----------------|-0---0-0---0-0-0-|-----------------|
 |
 |
 | 1 + 2 + 3 + 4 +   1 + 2 + 3 + 4 +   1 + 2 + 3 + 4 +   1 + 2 + 3 + 4 +
E|-----------------|-----------------|-----------------|-----------------|
B|-----------------|-----------------|-----------------|-4-4-4-4-4-------|
G|-4---4-4---4-4-4-|-4---4-4---4-4-1-|-2---2-2---2-2-1-|-4-4-4-4-4-------|
D|-2---2-2---2-2-2-|-2---2-2---2-2---|-0---0-0---0-0-0-|-4-4-4-4-4-------|
A|-2---2-2---2-2-2-|-0---0-0---0-0---|-0---0-0---0-0-0-|-2-2-2-2-2-------|
D|-2---2-2---2-2-2-|-----------------|-0---0-0---0-0-0-|-----------------|


Outro

   1 + 2 + 3 +   1 + 2 + 3 +   1 + 2 + 3 +   1 + 2 + 3 + 
E|-------------|-------------|-------------|-------------|
B|-------9-----|-9---9---7---|-------9-----|-9---7h9p7---|
G|-9---9-----9-|-------------|-9---9-----9-|-------------|
D|-------------|-------------|-------------|-------------|
A|-------------|-------------|-------------|-------------|
D|-------------|-------------|-------------|-------------|
 |
 |
 | 1 + 2 + 3 +   1 + 2 + 3 +   1 + 2 + 3 +   1 + 2 + 3 + 
E|-------------|-------------|-------------|-------------|
B|-------------|-------------|-------------|-------------|
G|-------------|-------------|-------------|-------------|
D|-------------|-------6-6---|-------------|-------xx2-xx|
A|-7-7-7-7-7---|-7-7-7-x-x---|-7-7-7-7-7---|-7-7-7-xx2-xx|
D|-6-6-6-7-7---|-9-9-9-4-4---|-6-6-6-7-7---|-9-9-9-xx2-xx|


   1 + 2 + 3 +   1 + 2 + 3 +   1 + 2 + 3 +   1 + 2 + 3 + 
E|-------------|-------------|-------------|-------------|
B|-------9-----|-9---9---7---|-------9-----|-9---7h9p7~--|
G|-9---9-----9-|-------------|-9---9-----9-|-------------|
D|-------------|-------------|-------------|-------------|
A|-------------|-------------|-------------|-------------|
D|-------------|-------------|-------------|-------------|
 |
 |
 | 1 + 2 + 3 +   1 + 2 + 3 +   1 + 2 + 3 +   1 + 2 + 3 + 
E|-------------|-------------|-------------|-------------|
B|-------------|-------------|-------------|-------------|
G|-------------|-------------|-------------|-------------|
D|-------------|-------6-6---|-------------|-------xx2~--|
A|-7-7-7-7-7---|-7-7-7-x-x---|-7-7-7-7-7---|-7-7-7-xx2~--|
D|-6-6-6-7-7---|-9-9-9-4-4---|-6-6-6-7-7---|-9-9-9-xx2~--|


there you go, enjoy!
Tap to rate this tab
 
# A B C D E F G H I J K L M N O P Q R S T U V W X Y Z