Song name
# A B C D E F G H I J K L M N O P Q R S T U V W X Y Z

Motion City Soundtrack - Make Out Kids tab

This is the intro moog for this song and it repeats throughout the song also.
have fun with it and comment if you like it or theres anything wrong with it.

Tuning: ( EADGBe)


Moog Intro - (00:12-00:24)

e|------------------------------------------------|
B|------------------------------------------------|
G|---12--10----10--12----12--10----10--12--13--15-|
D|----------13------------------13----------------|
A|------------------------------------------------|
E|------------------------------------------------|

e|------------------------------------------------|
B|------------------------------------------------|
G|---12--10----10--12--12--12--10----10--12-------|
D|----------13--------------------13--------10----|
A|---------------------------------------------13-|
E|------------------------------------------------|

e|------------------------------------------------|
B|------------------------------------------------|
G|---12--10----10--12----12--10----10--12--13--15-|
D|----------13--------13--------13----------------|
A|------------------------------------------------|
E|------------------------------------------------|

e|------------------------------------------------|
B|------------------------------------------------|
G|---12--10----10--12--12--12--10----10--12-------|
D|----------13--------------------13--------10----|
A|---------------------------------------------13-|
E|------------------------------------------------|

yea that repeats after a while in the song and thats basically the moog part for guitar...enjoy
Tap to rate this tab
# A B C D E F G H I J K L M N O P Q R S T U V W X Y Z