Guitaretab - guitar tabs
Song name
# A B C D E F G H I J K L M N O P Q R S T U V W X Y Z

Motion City Soundtrack - Together Well Ring In The New Year tab

Highlighted       Show chord diagrams
-------------------------------------------------------------------------------
	TOGETHER WE'LL RING IN THE NEW YEAR - Motion City Soundtrack
-------------------------------------------------------------------------------
Tabbed by: Jeremy Latimer
Email: jeremydavidlatimer@gmail.com

Tuning: Standard

  D#*  G#*  C#*
e-------------------------------------------------|
B-(8)--(13)---------------------------------------|
G--8----13--6-6-6-6-6-5-6-5-6-5-6-5-6-8-8~--------|
D--6----11--6-6-6-6-6-6-6-6-6-6-6-6-6-6-6~--------|
A--6----11--4-4-4-4-4-4-4-4-4-4-4-4-4-4-4~--------|
E-------------------------------------------------|

   F   F#   G#   C#  D#
e-------------------------------------------------|
B-------------------------------------------------|
G----------------6---8----------------------------|
D--3---4----6----6---8----------------------------|
A--3---4----6----4---6----------------------------|
E--1---2----4-------------------------------------|

D#*             G#*
   This must be it

               C#*
Welcome to the new year

D#*                 G#*
The drinks were consumed

                C#*
The plants were destroyed

And the hors d'oeuvres dismantled

D#*     G#*
I'm not smiling

  C#*
Behind this fake veneer

     D#*         G#*
I am often interrupted

                C#*
Or completely ignored

    F               F#
But most of all Iím bored


G#    C#        D#
  I'm trying to find out

C#    G#         C#  F#   /   G#
If my words have any meaning
[ Tab from: http://www.guitaretab.com/m/motion-city-soundtrack/68795.html ]
G#   C#        D#         C#
Lackluster and full of contempt

        G#     C#       F#   /  G#
When it always ends the same

F                    C#
Why wonít she listen to me?


D#*         G#*
Why did I come?

              C#*
Oh, why did I come here?

D#*               G#*
These humans all suck

              C#*
I'd rather be home
feeling violent and lonely

D#*     G#*       C#*
I'm not trying to sound so insincere

        D#*                          G#*
but the postcard that's taped to the freezer reads:

               C#
"Wish you were here"
      F                F#
How I wish I could disappear


G#    C#        D#
  I'm trying to find out

C#    G#         C#  F#   /   G#
If my words have any meaning

G#   C#        D#         C#
Lackluster and full of contempt

        G#     C#       F#   /  G#
When it always ends the same

G#      C# D#     C#
  Heads up Damage Control

          G#    C#        F#   /   G#
Thereís a ring around her finger

G#     C#         D#       C#
  Last chance for changing lanes

        G#     C#      F#   /  G#
And you missed it by a mile


F                    C#
Why wonít she listen to me?

D#*             G#*
   This must be it

               C#      G#
Welcome to the new year
Related for Together Well Ring In The New Year tab