Guitaretab - guitar tabs
Song name
# A B C D E F G H I J K L M N O P Q R S T U V W X Y Z

Motion City Soundtrack - Perfect Teeth tab

-------------------------------------------------------------------------------
                     PERFECT TEETH Ė Motion City Soundtrack
-------------------------------------------------------------------------------
Tabbed by: k-rush
Email: k-rush@rescueteam.com

Tuning: Drop D

I was looking for a tab for this a long time ago but I couldnít find anything, so I
to do it myself. That didnít really work. Then I checked back later and I found a tab, but
was tuned a half step down (which is probably accurate, but a hassle if your guitar is 
standard tuning like mine), it was missing a few parts, and it was a little messy. So I
it up, put it in drop D, got the missing parts, and here you go.

Intro

e|----------------------------|
B|----------------------------|
G|----------------------------|
D|----7/8--------7/8----------|
A|----7/8--------7/8----------|
D|----7/8--------7/8----------|

*The second guitar keeps playing this until the asterisks in the next part, where it
along with guitar 1.

e|--------------------------------------------------|
B|--------------------------------------------------|
G|--------------------------------------------------|
D|--8-----1-----5-----3333-55-66-8------1-----3-----|
A|--8-x8--1-x8--5-x8--3333-55-66-8-x8---1-x8--3-x8--|
D|--8-----1-----5-----3333-55-66-8------1-----3-----|
  Pm..................*..........*.............

Intro/chorus riff

*I like playing both guitars in one part; if you want to do that, use the alternate
of the chorus instead of the guitar 1 part. Listen to the song for the rhythm, of course.
note-picking might be hard to hear with all the power chords if you donít use enough distortion.

[Guitar 1]

e|------------------------------------------|
B|------------------------------------------|
G|------------------------------------------|
D|--8-8----8/11----1/5-5----5/333-555-66----|
A|--8-8----8/11----1/5-5----5/333-555-66----|   x2
D|--8-8----8/11----1/5-5----5/333-555-66----|

[Alternate version]

e|-------------------------------------------------------------|
B|-------11-11-11-11---------4-4-4-4---------------------------|
G|-------10-10-10-10---------3-3-3-3---------------------------|  x2
D|--8-8--8--8--8--8---8/1-1--1-1-1-1--1/55---------333-555-66--|
A|--8-8--8--8--8--8---8/1-1--1-1-1-1--1/55-5h6p5---333-555-66--|
D|--8-8---------------8/1-1-----------1/55------8--333-555-66--|

Verse
[ Tab from: http://www.guitaretab.com/m/motion-city-soundtrack/70670.html ]
e|---------------------------------------------------------|
B|---------------------------------------------------------|
G|---------------------------------------------------------|
D|--8-----1-----5-----3333-55-66-8------1-----3------------|
A|--8-x8--1-x8--5-x8--3333-55-66-8-x8---1-x8--3-x12----4b--|
D|--8-----1-----5-----3333-55-66-8------1-----3------55----|
  Pm...................................................

e|------------------------------------------------------|
B|------------------------------------------------------|
G|------------------------------------------------------|
D|--8-----1-----5-----3333-55-66-8------1-----3-----6~--|
A|--8-x8--1-x8--5-x8--3333-55-66-8-x8---1-x8--3-x8--6~--|
D|--8-----1-----5-----3333-55-66-8------1-----3-----6~--|
  Pm..........................................let up

Repeat chorus

Guitar 2 intro to verse 2

e|--------|
B|--------|
G|--------|
D|--8-----|
A|--8-x8--|
D|--8-----|

Repeat verse

Repeat chorus

Chorus 2 ending

e|------------|
B|------------|
G|--------8~--|
D|--8-----8~--|
A|--8-x8--6~--|
D|--8---------|

Bridge Part 1

e|---------------------|      |------------------------------|
B|---------------------|      |------------------------------|
G|--5-----6------------|      |--5--5-xxxxx--6--6-xxxxx------|
D|--5-x8--6-x8--1------|  x3  |--5--5-xxxxx--6--6-xxxxx--1~--|
A|--3-----4-----1-x16--|      |--3--3-xxxxx--4--4-xxxxx--1~--|
D|--------------1------|      |--------------------------1~--|

Bridge part 2

*Hereís where the other tab didnít have anything. The exact notes are hard to hear, but
is what one of the guitars plays; the other guitar either doesnít play or plays this an
lower. I think the bass also plays these same notes. The rhythm is weird if youíre 
to sing and play at the same time, but you can get it if you listen to the song.

B|--4-(44)----------------| x4
G|---------3----0-(00)-1--|

Repeat second half of intro

Repeat chorus; end with:

e|------------------------------|
B|------------------------------|
G|--5--5-xxxxx--6--6-xxxxx------|
D|--5--5-xxxxx--6--6-xxxxx--1~--|
A|--3--3-xxxxx--4--4-xxxxx--1~--|
D|--------------------------1~--|

There you go. This is my first tab too, so I hope you like it.

| /  slide up
|   slide down
| h  hammer-on
| p  pull-off
| ~  vibrato
| +  harmonic
| x  Mute note
===============================================================================
Related for Perfect Teeth tab