Guitaretab - guitar tabs
Song name
# A B C D E F G H I J K L M N O P Q R S T U V W X Y Z

Motion City Soundtrack - My Favorite Accident Acoustic tab

This is a great song by a great band. I think I like it better acoustic too! 
This is my first tab ever. I'm pretty sure is close to perfect, please rate and comment.

Alright the guitar is tuned down a half-step:
Eb-Ab-Db-Gb-Bb-eb

Key:
h: hammer on
p: pull off
~: let ring
...: p.m.
x: mute string
_________________________________________________________________________

intro 

guitar 1
0:00
eb|--202020--2-02023--202020--2-02023---|
Bb|--333333--3-33333--333333--3-33333---|
Gb|--000000--0-00000--000000--0-00000---|
Db|--000000--0-00000--000000--0-00000---|
Ab|--222222--2-22222--222222--2-22222---|
Eb|--xxxxxx--x-xxxxx--xxxxxx--x-xxxxx---|

0:06
eb|--0-0-000--0-0-000--0-0-000-0-0-000----0-0-000--0-0-000--202020x202023--|
Bb|--3-3-333--0-0-000--3-3-333-3-3-333----3-3-333--0-0-000--333333x333333--|
Gb|--4-4-444--2-2-222--0-0-000-0-0-000----4-4-444--2-2-222--000000x000000--|
Db|--4-4-444--2-2-222--0-0-000-0-0-000----4-4-444--2-2-222--000000x000000--|
Ab|--2-2-222--0-0-000--x-x-xxx-x-x-xxx----2-2-222--0-0-000--xxxxxxxxxxxxx--|
Eb|--------------------3-3-333-3-3-333----------------------333333x333333--|

0:17
eb|--0-0-000--0-0-000--0-0-000-0-0-000----0-0-000--0-0-000--0~--|
Bb|--3-3-333--0-0-000--3-3-333-3-3-333----3-3-333--0-0-000--3~--|
Gb|--4-4-444--2-2-222--0-0-000-0-0-000----4-4-444--2-2-222--0~--|
Db|--4-4-444--2-2-222--0-0-000-0-0-000----4-4-444--2-2-222--0~--|
Ab|--2-2-222--0-0-000--x-x-xxx-x-x-xxx----2-2-222--0-0-000--x~--|
Eb|--------------------3-3-333-3-3-333----------------------3~--|

guitar2
rest 0:00 - 0:06

0:06
eb|--2-2-222--2-2-222--202020--202020----2-2-222--2-2-222--202020--2-02023--|
Bb|--3-3-333--3-3-333--333333--333333----3-3-333--3-3-333--333333--3-33333--|
Gb|--0-0-000--0-0-000--000000--000000----0-0-000--0-0-000--000000--0-00000--|
Db|--0-0-000--0-0-000--000000--000000----0-0-000--0-0-000--000000--0-00000--|
Ab|--2-2-222--0-0-000--xxxxxx--xxxxxx----2-2-222--0-0-000--xxxxxx--x-xxxxx--|
Eb|--0-0-000--2-2-222--333333--333333----0-0-000--2-2-222--333333--3-33333--|

0:17
eb|--2-2-222--2-2-222--202020--202020----2-2-222--2-2-222--2--0-5--|
Bb|--3-3-333--3-3-333--333333--333333----3-3-333--3-3-333--3~------|
Gb|--0-0-000--0-0-000--000000--000000----0-0-000--0-0-000--0~------|
Db|--0-0-000--0-0-000--000000--000000----0-0-000--0-0-000--0~------|
Ab|--2-2-222--0-0-000--xxxxxx--xxxxxx----2-2-222--0-0-000--x-------|
Eb|--0-0-000--2-2-222--333333--333333----0-0-000--2-2-222--3~------|

verse 1

guitar 1
rest 0:27-0:51

0:51
eb|--0-0-0-0x------2020------2020------2020------2020------2020------2020--2020xxxx--2023x---|
Bb|--3-3-3-3x------3333------3333------3333------0000------3333------3333--3333xxxx--3333x---|
Gb|--0-0-0-0x------0000------0000------0000------0000------0000------0000--0000xxxx--0000x---|
Db|--0-0-0-0x------0000------0000------0000------0000------0000------0000--0000xxxx--0000x---|
Ab|--x-x-x-xx--22222222--00000000------xxxx------xxxx--22222222--00000000--xxxxxxxx--xxxxx---|
Eb|--3-3-3-3x------xxxx------xxxx--33333333--33333333------xxxx------xxxx--3333xxxx--3333x---|
               ....      ....      ....      ....      ....      ....


guitar 2

0:29
eB|-----2-----2-----2-----2h3p2h5---------2-----2-----2-----2h3-5-3-2----|
Bb|----3-3---3-3---3-3-------------------3-3---3-3---3-3-----------------|
Gb|----------------------------------------------------------------------|
Db|----------------------------------------------------------------------|
Ab|--2-----0---------------------------2-----0---------------------------|
Eb|--------------3---------------------------------3---------------------|

0:41
eB|-----2-----2-----2-----2h3-5-3-2--------2-----2-----2-----2-2-2-xx|
Bb|----3-3---3-3---3-3--------------------3-3---3-3---3-3----3-3-3-xx|
Gb|----------------------------------------------------------0-0-0-xx|
Db|----------------------------------------------------------0-0-0-xx|
Ab|--2-----0----------------------------2-----0--------------x-x-x-xx|
Eb|--------------3----------------------------------3--------3-3-3-xx|

0:52
eb|-------2020-------2020-------2020-------2020-------2020-------2020--2020xxxx--2023x---|
Bb|-------3333-------3333-------3333-------0000-------3333-------3333--3333xxxx--3333x---|
Gb|-------0000-------0000-------0000-------0000-------0000-------0000--0000xxxx--0000x---|
Db|-------0000-------0000-------0000-------0000-------0000-------0000--0000xxxx--0000x---|
Ab|--2222-2222--0000-0000-------xxxx-------xxxx--2222-2222--0000-0000--xxxxxxxx--xxxxx---|
Eb|-------xxxx-------xxxx--3333-3333--3333-3333-------xxxx-------xxxx--3333xxxx--3333x---|
     ....       ....       ....       ....       ....       ....


Chorus

guitar 1 & 2
[ Tab from: http://www.guitaretab.com/m/motion-city-soundtrack/77873.html ]
1:04
eb|--222-2-22----222-2-22----222-2-22--2-22--2-22----222-2-22----222-2-22----222-2-22--0-00--0-00--|	
Bb|--333-3-33----333-3-33----333-3-33--3-33--3-33----333-3-33----333-3-33----333-3-33--3-33--3-33--|
Gb|--000-0-00----000-0-00----222-2-22--2-22--2-22----000-0-00----000-0-00----222-2-22--0-00--0-00--|x2
Db|--000-0-00----000-0-00----000-0-00--4-44--0-00----000-0-00----000-0-00----000-0-00--2-22--4-44--|
Ab|--xxx-x-xx----xxx-x-xx----000-0-00--0-00--4-44----xxx-x-xx----xxx-x-xx----000-0-00--0-00--0-00--|
Eb|--222-2-22----333-3-33----------------------------222-2-22----333-3-33--------------------------|

2nd time end on :

    1:24       1:27      1:29
eb|--2~---------2~---------x--|
Bb|--3~---------3~---------x--|
Gb|--2~---------2~---------x--|
Db|--0~---------0~---------x--|
Ab|--0~---------0~---------x--|
Eb|------------------------x--|

Pre-Verse 2

guitar 1

1:30
eb|--0-0-000--0-0-000--0-0-000-0-0-000----0-0-000--0-0-000--202020x-2-02023--|
Bb|--3-3-333--0-0-000--3-3-333-3-3-333----3-3-333--0-0-000--333333x-3-33333--|
Gb|--4-4-444--2-2-222--0-0-000-0-0-000----4-4-444--2-2-222--000000x-0-00000--|
Db|--4-4-444--2-2-222--0-0-000-0-0-000----4-4-444--2-2-222--000000x-0-00000--|
Ab|--2-2-222--0-0-000--x-x-xxx-x-x-xxx----2-2-222--0-0-000--xxxxxxx-x-xxxxx--|
Eb|--------------------3-3-333-3-3-333----------------------333333x-3-33333--|

guitar 2

1:30
eb|--2-2-222--2-2-222--202020--202020----2-2-222--2-2-222--202020--2-02023--|
Bb|--3-3-333--3-3-333--333333--333333----3-3-333--3-3-333--333333--3-33333--|
Gb|--0-0-000--0-0-000--000000--000000----0-0-000--0-0-000--000000--0-00000--|
Db|--0-0-000--0-0-000--000000--000000----0-0-000--0-0-000--000000--0-00000--|
Ab|--2-2-222--0-0-000--xxxxxx--xxxxxx----2-2-222--0-0-000--xxxxxx--x-xxxxx--|
Eb|--0-0-000--2-2-222--333333--333333----0-0-000--2-2-222--333333--3-33333--|

Verse 2

guitar 1 & 2

1:42
eb|--2-2-2222--2-2-2222--2-2-2222-2-2-2222----2-2-2222--2-2-2222--xx2-xx2-xx2-2222--|
Bb|--3-3-3333--3-3-3333--3-3-3333-3-3-3333----3-3-3333--3-3-3333--xx3-xx3-xx3-3333--|
Gb|--0-0-0000--0-0-0000--0-0-0000-0-0-0000----0-0-0000--0-0-0000--xx0-xx0-xx0-0000--|
Db|--0-0-0000--0-0-0000--0-0-0000-0-0-0000----0-0-0000--0-0-0000--xx0-xx0-xx0-0000--|
Ab|--2-2-2222--0-0-0000--x-x-xxxx-x-x-xxxx----2-2-2222--0-0-0000--xxx-xxx-xxx-xxxx--|
Eb|------------2-2-2222--3-3-3333-3-3-3333--------------2-2-2222--xx3-xx3-xx3-3333--|

1:53
eb|--2-2-2222--2-2-2222--2-2-2222-2-2-2222----2-2-2222--2-2-2222--2222222222222--|
Bb|--3-3-3333--3-3-3333--3-3-3333-3-3-3333----3-3-3333--3-3-3333--3333333333333--|
Gb|--0-0-0000--0-0-0000--0-0-0000-0-0-0000----0-0-0000--0-0-0000--0000000000000--|
Db|--0-0-0000--0-0-0000--0-0-0000-0-0-0000----0-0-0000--0-0-0000--0000000000000--|
Ab|--2-2-2222--0-0-0000--x-x-xxxx-x-x-xxxx----2-2-2222--0-0-0000--xxxxxxxxxxxxx--|
Eb|------------2-2-2222--3-3-3333-3-3-3333--------------2-2-2222--3333333333333--|

chorus

the ending this time is

    2:25
eb|--2~-----|
Bb|--3~-----|
Gb|--2~-----|
Db|--0~-----|
Ab|--0~-----|
Eb|---------|

bridge:
the same as the chorus except it is repeated 4 times

the fourth ending is:

    2:48     2:50
eb|--2~-------x--|
Bb|--3~-------x--|
Gb|--2~-------x--|
Db|--0~-------x--|
Ab|--0~-------x--|
Eb|-----------x--|

verse 3

guitar 2

2:51
eb|--2-2-2222--2-2-2222--2-2-2222-2-2-2222----2-2-2222--2-2-2222--xx2-xx2-xx2-2222--|
Bb|--3-3-3333--3-3-3333--3-3-3333-3-3-3333----3-3-3333--3-3-3333--xx3-xx3-xx3-3333--|
Gb|--0-0-0000--0-0-0000--0-0-0000-0-0-0000----0-0-0000--0-0-0000--xx0-xx0-xx0-0000--|x2
Db|--0-0-0000--0-0-0000--0-0-0000-0-0-0000----0-0-0000--0-0-0000--xx0-xx0-xx0-0000--|
Ab|--2-2-2222--0-0-0000--x-x-xxxx-x-x-xxxx----2-2-2222--0-0-0000--xxx-xxx-xxx-xxxx--|
Eb|------------2-2-2222--3-3-3333-3-3-3333--------------2-2-2222--xx3-xx3-xx3-3333--|

the second ending is:

3:12
eb|--222222222222--xxxx--|
Bb|--333333333333--xxxx--|
Gb|--000000000000--xxxx--|
Db|--000000000000--xxxx--|
Ab|--xxxxxxxxxxxx--xxxx--|
Eb|--333333333333--xxxx--|

repeate verse 2
but the ending this time is:

eb|--202020--2-02023--202020--2-02023---|
Bb|--333333--3-33333--333333--3-33333---|
Gb|--000000--0-00000--000000--0-00000---|
Db|--000000--0-00000--000000--0-00000---|
Ab|--222222--2-22222--222222--2-22222---|
Eb|--xxxxxx--x-xxxxx--xxxxxx--x-xxxxx---|

_________________________________________________________

Intro
Verse 1
Chorus
Pre-Verse 2
Verse 2
Chorus
Bridge
Verse 3
Verse 2 (with different ending)

___________________________________________________________

I got the message long before you said you knew
There was no chance of us at all
With no velocity and empty-headed hard and far-too-long
I spent two years alone with you
Just when I thought I had forgotten
You came back soft without a sound

You said we were an accident
With accidents youíll never know what could have been
So we were an accident
Youíll always be my favorite one

You hit the road and left me an ocean
I can't swim in the silence of your skin-skin please let me in
Side the times we never had right
Inside two years alone with you

You said we were an accident
With accidents youíll never know what could have been
So we were an accident
Youíll always be my favorite one

We could have been (We could have been again)
Instead of accidental running always running (why canít you believe)
We could have been (We could have been again)

Long winded promises of future company
Up close the sound remains the same
Without the reign of terror over every momentary change
We are exactly as before

You hit the road and left me an ocean
I can't swim in the silence of your skin-skin please let me in
Side the time I had to forget you
Inside no chance of us at all
Related for My Favorite Accident Acoustic tab