Song name
# A B C D E F G H I J K L M N O P Q R S T U V W X Y Z

Motion City Soundtrack - Opening Night tab

Help us improve GuitareTab! Take a short survey!
The tab is 100% at least for the parts i did
but thesecond guitar plays the little high notes you hear
on some parts of the main riff


this part is played basicaly through the whole song
but there is a lot of noise and there might be a
second guitar going over it


Main Riff

e|---------------------------------------------------|
B|---------------------------------------------------|
G|---------------------------------------------------|
D|----------------------------------8----------------|
A|---44464-4\9-99998910-44464-4\9-99-9---------------|
E|---------------------------------------------------|


e|---------------------------------------------------|
B|---------------------------------------------------|
G|---------------------------------------------------|
D|---------------------------------------------------|
A|---44464-4\9-99998910-44464-4\13-------------------|
E|---------------------------------------------------|


This part starts at about 1:02 and you play it 3 times
then it stops then play 3 more

e|---------------------------------------------------|
B|---------------------------------------------------|
G|---------------------------------------------------|
D|---------------------------------------------------|
A|---2~-1-1\4----------------------------------------|
E|---------------------------------------------------|

After this go back to the main riff and play till the end
Related for Opening Night tab