Song name
# A B C D E F G H I J K L M N O P Q R S T U V W X Y Z

Motion City Soundtrack - Worst Part tab

Artist: Motion City Soundtrack
Song: The Worst Part
Album: Sound of Superman
Tunning: Standard
Tabbed By: >>Max<<

The intro is already tabbed, and whoever tabbed that
said that they saw it live, and it was capoed, but I
don't have a capo, and I think you can play it without one anyways.


**GUITAR 1 ( Clean )**

INTRO AND VERSE
|------------------|
|------------------|
|------------------|
|--4-8-4-8-4-8-6---|
|--4-8-4-8-4-8-6---|  x2
|--2-6-2-6-2-6-4---|

PRE-CHORUS (Out of the blue...) P.M.
|------------------|
|------------------|
|--6-------6-------|
|--6-4-8-4-6-4-8-4-|
|--4-4-8-4-4-4-8-4-|
|----2-6-2---2-6-2-|
   * * * * * * * *

CHORUS
|----------------------|
|----------------------|
|--6-------6-----------|
|--6-4-8-4-6-4-8-4-----|(6) () = only play when chorus is ending.
|--4-4-8-4-4-4-8-4-----|(6)
|----2-6-2---2-6-2-----|(4)


BRIDGE (I wrote a letter, a letter to write from the start...)
|------------|
|------------|
|------------|
|--8-6-4-4---|  x4
|--8-6-4-4---|
|--6-4-2-2---|

|---------|
|---------|
|---------|
|--8-6-4--| x1 HOLD EACH CHORD
|--8-6-4--|
|--6-4-2--|

|----------|
|----------|
|------6---|
|--8-6-6---| x1 HOLD EACH CHORD
|--8-6-4---|
|--6-4-----|

-------------------------------------------------------

**GUITAR 2 ( Slight Distortion )**
(Some parts I'm not sure of, especially the Intro/Verse
  but they sound pretty close)

INTRO/ VERSE
|----------------------------------|
|--7-7-7-7--7-7-7-6-6-6--9--6-6-6--|
|----------------------------------|
|----------------------------------| x3
|----------------------------------|
|----------------------------------|

|-----------------------------------------|
|-----------------------------------------|
|--7h8--7h8--7h8--7h8--7h8--7h8--7h8--7h8-|
|-----------------------------------------| x1
|-----------------------------------------|
|-----------------------------------------|

PRE CHORUS (Out of the blue...)
*Silent*

CHORUS
|---------------------------------------|
|---------------------------------------|
|--6-6-6-5-5-5-8-8-8-5-5-5-6-6-5-5------|
|--6-6-6-6-6-6-6-6-6-6-6-6-6-6-6-6------| X4  (x8 the second time)
|---------------------------------------|
|---------------------------------------|

|-----------------------------------|
|-----------------------------------|
|--8-8-8-8-8-8-8-8-8-8-8-8-8-8-8-8--|
|--6-6-6-6-6-6-6-6-6-6-6-6-6-6-6-6--| X1
|-----------------------------------|
|-----------------------------------|

BRIDGE (I wrote a letter, a letter to write from the start...)
|---------------------------------------|
|---------------------------------------|
|--6-6-6-5-5-5-8-8-8-5-5-5-6-6-5-5------|
|--6-6-6-6-6-6-6-6-6-6-6-6-6-6-6-6------| X12
|---------------------------------------|
|---------------------------------------|

|-----------------|
|-----------------|
|--6----5----11---|
|--6----6----11---| X1
|-----------------|
|-----------------|

Sacapuntas6@yahoo.com for any questions, comments, corrections, etc.
Tap to rate this tab
# A B C D E F G H I J K L M N O P Q R S T U V W X Y Z