Song name
# A B C D E F G H I J K L M N O P Q R S T U V W X Y Z

Motion City Soundtrack - Throw Down tab

Tuning- Half Step Down
*= harmonic
^= bend note(s)


Intro 1
im not positively sure but its something along the lines of
--------------------------------------------------------------------|
---------------------------------------------------------------7----|
------6h7-----6h7------6h7------6-------6h7-------6h7------6h7---7--|
-0-0------0-0------0-0-------0-0----0-0-------0-0-------0-0---------|
--------------------------------------------------------------------|
--------------------------------------------------------------------|

---------------------------------------------------------------|
---------------------------------------------------------------|
------6h7-----6h7------6h7------6-------6h7-------6h7------6h7-|
-0-0------0-0------0-0-------0-0----0-0-------0-0-------0-0----|
---------------------------------------------------------------|
---------------------------------------------------------------|

(sounds pretty close i know its not 100% please correct me)

then
-15-14--------------------------------------|
-------14-10--10-10-12-10-10-12-10----------|
----------------------------------12-11-12--|
--------------------------------------------|
--------------------------------------------|
--------------------------------------------|

------------------------------|
-10-10-12-10-10-12-10---------|
---------------------12-11----|
---------------------------12-|
------------------------------|
------------------------------|

Verse (this is the part where if you tuned it down then you play the harmonics if not 
the other one)
                 *  *
---------------------------------|
-----------------7-----------^---|
-7----7----7--------7----7---7---|
-7----7----7-------------7---7---|    x2
-5----5----5-------------5---5---|
---------------------------------|

PreChorus
-------------------------------|
-10-10-12-10-10-12-10----------|
---------------------12-11-12--|
-------------------------------|
-------------------------------|
-------------------------------|

------------------------------|
-10-10-12-10-10-12-10---------|
---------------------12-11----|
---------------------------12-|
------------------------------|
------------------------------|
Chorus
--------------------------|
--------------------------|
-7-7----------------------|
-7-7-7-7-9-9-5555-77777---|  x2
-5-5-7-7-9-9-5555-77777---|
-----5-5-7-7-3333-55555---|

------|
------|
-9----|
-9-5--|
-7-5--|
---3--|


thats it easy order so just listen to the song for extra stuff and these are all the 
so it doesnt go out of range
but im not absolutely sure about the first part of the chorus. thanks
Tap to rate this tab
# A B C D E F G H I J K L M N O P Q R S T U V W X Y Z