Song name
# A B C D E F G H I J K L M N O P Q R S T U V W X Y Z

Motion City Soundtrack - This Is For Real tab

Artist: Motion City Soundtrack
Song: This Is For Real
Album: Even If It Kills Me
Tunning: Standard
Tabbed By: >>Max<<

***So I updated it and added something that sounds close to the pre chorus. I doubt it's 
correct, but it's not too bad. If anyone has suggestions on what it is, comment the tab 
I'll update it if it sounds better to me.***

* NO GUITAR *
I've got emotion
Dripping out my pores and I
Thought I would let you know
You are the night light,
Ripping through my wicked world
How you make it sparkle and glow,

|----------------------------------------------------------------------------|
|----0---0---0---0---4---4---4---4----14----14----14----14----14----14-14b---|
|--4---4---4---4---4---4---4---4---13----13----13----13----16----16----17b---|
|----------------------------------------------------------------------------|
|----------------------------------------------------------------------------|
|----------------------------------------------------------------------------|

Before I lose control
There's just one thing you should know

CHORUS
|------------------------------------------|
|------------------------------------------|
|------2-2-----2-2-----2-2---------4-4-4-4-|
|--2-2-2-2-6-6-2-2-2-2-2-2-4-4-4-4-4-4-4-4-|
|--2-2-0-0-6-6-0-0-2-2-0-0-4-4-4-4-2-2-2-2-|
|--0-0-----4-4-----0-0-----2-2-2-2---------|

  This is for real, this time I mean it
  I'm coming clean, please don't let go
  I said from the...


|------------------------------------------|
|------------------------------------------|
|------2-2-----2-2-----2-2--------4--------|
|--2-2-2-2-6-6-2-2-2-2-2-2-4------4-(x8)---|
|--2-2-0-0-6-6-0-0-2-2-0-0-4-(x8)-2--------|
|--0-0-----4-4-----0-0-----2---------------|

  ..start, that you could take it or leave it
  Prefer that you keep it
  Don't let go
  Don't let go
  Don't let go

SOLO:  ( ) = guitar 2
|------------------------------------------------------------------------|
|------------------------------------------------------------------------|
|---------------------------------------------(13)-----------------------|
|-----------------------------------(11)-(14)----------------------------|
|--7-7-7-9-11-7-(12)-(12)-(12)-(14)----------------11-11-11-11-11-7-9b11-|
|------------------------------------------------------------------------|


* NO GUITAR *
I had some night pills,
Crawling up my skin and bones
I nearly did explode
You smote the demons
Gave me back my feelings
Now I am good to go

|----------------------------------------------------------------------------|
|----0---0---0---0---4---4---4---4----14----14----14----14----14----14-14b---|
|--4---4---4---4---4---4---4---4---13----13----13----13----16----16----17b---|
|----------------------------------------------------------------------------|
|----------------------------------------------------------------------------|
|----------------------------------------------------------------------------|

Before, my face hits the floor
There's just one thing you should know

CHORUS
|------------------------------------------|
|------------------------------------------|
|------2-2-----2-2-----2-2---------4-4-4-4-|
|--2-2-2-2-6-6-2-2-2-2-2-2-4-4-4-4-4-4-4-4-|
|--2-2-0-0-6-6-0-0-2-2-0-0-4-4-4-4-2-2-2-2-|
|--0-0-----4-4-----0-0-----2-2-2-2---------|

  This is for real, this time I mean it
  I'm coming clean, please don't let go
  I said from the...


|------------------------------------------|
|------------------------------------------|
|------2-2-----2-2-----2-2---------4-4-4-4-|
|--2-2-2-2-6-6-2-2-2-2-2-2-4-4-4-4-4-4-4-4-|
|--2-2-0-0-6-6-0-0-2-2-0-0-4-4-4-4-2-2-2-2-|
|--0-0-----4-4-----0-0-----2-2-2-2---------|

 ...start, that you could take it or leave it
Prefer that you keep it
Don't let go

|-------------------------------------|
|-------------------------------------|
|-----------2-2-2-2--6-6-6-6--4-4-4-4-|
|--2-2-2-2--2-2-2-2--6-6-6-6--4-4-4-4-|  X4
|--2-2-2-2--0-0-0-0--4-4-4-4--2-2-2-2-|
|--0-0-0-0----------------------------|

This is the best thing that I've ever had for real
This is the best thing that I've ever had for real

|-----------------------------------|
|-----------------------------------|
|--2-2-2-2-2-2-2-2--5-5-5-5-5-5-5-5-|
|--2-2-2-2-2-2-2-2--5-5-5-5-5-5-5-5-|
|--0-0-0-0-0-0-0-0--3-3-3-3-3-3-3-3-|
|-----------------------------------|

This is for real, this time I mean it
I'm coming clean, please don't let go
I said from the start, that you could take it or leave it
Prefer that you keep it
Don't let go

BRIDGE: [Play the first line twice]
|-----------------------------------------------------------------------------|
|----------------------------------------------------------10-10-10-9-9-9-9-9-|
|--8-8-8-8-8-8-8-8-9-9-9-9-9-9-9-9-11-11-11-11-11-11-11-11--------------------|
|-----------------------------------------------------------------------------|
|-----------------------------------------------------------------------------|
|-----------------------------------------------------------------------------|

|------------------------------------------------------------------------|
|--10-10-10-9-9-9-10-10-10-9-9-9-7-7-9-9---------------------------------|
|----------------------------------------9-9-9-9-9-9-9-9-----------------|
|--------------------------------------------------------9-9-9-9-9-9-9-9-|
|------------------------------------------------------------------------|
|------------------------------------------------------------------------|

|--------------------------------------------------------------------------|
|--------------------------------------------------------------------------|
|--------------------------------------------------11-11-11-11-11-11-11-11-|
|--13-13-13-13-13-13-13-13-14-14-14-14-14-14-14-14-------------------------|
|--------------------------------------------------------------------------|
|--------------------------------------------------------------------------|

|--------------------------|
|--------------------------|
|--12-12-12-12-12-12-12-12-|
|--------------------------|
|--------------------------|
|--------------------------|

For a physical challenge I'm notoriously bored
Intravenous delivery electrolytes and more
Every time its the same routine
Out with the bad, in with the clean
Before I lose all motor skills
There's one thing you should know

|------------------------------------------|
|------------------------------------------|
|------2-2-----2-2-----2-2---------4-4-4-4-|
|--2-2-2-2-6-6-2-2-2-2-2-2-4-4-4-4-4-4-4-4-|
|--2-2-0-0-6-6-0-0-2-2-0-0-4-4-4-4-2-2-2-2-|
|--0-0-----4-4-----0-0-----2-2-2-2---------|

This is for real, this time I mean it
I'm coming clean, please don't let go
I said from the start, that you could take it or leave it
Prefer that you keep it
Don't let go


|-------------------------------------|
|-------------------------------------|
|-----------2-2-2-2--6-6-6-6--4-4-4-4-|
|--2-2-2-2--2-2-2-2--6-6-6-6--4-4-4-4-|  X8
|--2-2-2-2--0-0-0-0--4-4-4-4--2-2-2-2-|
|--0-0-0-0----------------------------|

This is the best thing that I've ever had for real
This is the best thing that I've ever had for real

This is the best thing that I've ever had for real
This is the best thing that I've ever had for real


|-----------------------------------|
|-----------------------------------|
|--2-2-2-2-2-2-2-2--5-5-5-5-5-5-5-5-|
|--2-2-2-2-2-2-2-2--5-5-5-5-5-5-5-5-|
|--0-0-0-0-0-0-0-0--3-3-3-3-3-3-3-3-|
|-----------------------------------|

----------------------------------------------------------------------------
If you have any questions or comments...well, just leave a comment then.
Tap to rate this tab
# A B C D E F G H I J K L M N O P Q R S T U V W X Y Z