Song name
# A B C D E F G H I J K L M N O P Q R S T U V W X Y Z

Motion City Soundtrack - Where I Belong tab

-------------------------------------------------------------------------------
	             Where I Belong - Motion City Soundtrack
-------------------------------------------------------------------------------
Tabbed by:xhandgunxheart

Tuning:EADGBe

I'll add some of the keyboard stuff if I can figure it out.



VERSE

e|--------------------------------------------------|
B|--------------------------------------------------|
G|--------------------------666-666666-666-666666---|  x4
D|---666-666666-666-666666--666-666666-666-666666---|
A|---666-666666-666-666666--444-444444-444-444444---|
E|---444-444444-444-444444--------------------------|

PRE-CHORUS

e|---------|
B|---------|
G|---------|
D|---4-3---|
A|---4-3---|
E|---2-1---|

INTERLUDE

e|--------------------------------------------------|
B|--------------------------------------------------|
G|--------------------------666-666666-666-666666---|
D|---666-666666-666-666666--666-666666-666-666666---|
A|---666-666666-666-666666--444-444444-444-444444---|
E|---444-444444-444-444444--------------------------|


e|--------------------------------------------|
B|--------------------------------------------|
G|--------------------------666-666666-666----|
D|---666-666666-666-666666--666-666666-6664---|
A|---666-666666-666-666666--444-444444-4444---|
E|---444-444444-444-444444----------------2---|

VERSE

e|--------------------------------------------------|
B|--------------------------------------------------|
G|--------------------------666-666666-666-666666---|  x3
D|---666-666666-666-666666--666-666666-666-666666---|
A|---666-666666-666-666666--444-444444-444-444444---|
E|---444-444444-444-444444--------------------------|

PRE-CHORUS

e|------------------------------------|
B|------------------------------------|
G|------------------------------------|
D|---4-3--666-666666-666-666666-4-3---|
A|---4-3--666-666666-666-666666-4-3---|
E|---2-1--444-444444-444-444444-2-1---|

CHORUS

e|--------------------------------------------------|
B|--------------------------------------------------|
G|--------------------------666-666666-444-444444---|  x2
D|---666-666666-666-666666--666-666666-444-444444---|
A|---666-666666-666-666666--444-444444-222-222222---|
E|---444-444444-444-444444--------------------------|

BRIDGE

e|-----------------------------------------------------------------|
B|-----------------------------------------------------------------|
G|--------4444----------------4444----------------4444-------------|
D|---2222-4444-4444-6666-2222-4444-4444-6-xx-2222-4444-4444-6666---|
A|---2222-2222-4444-6666-2222-2222-4444-6-xx-2222-2222-4444-6666---|
E|---0000------2222-4444-0000------2222-4-xx-0000------2222-4444---|

e|-------------------|
B|-------------------|
G|-------------------|
D|---4--3--6--4--2---|
A|---4--3--6--4--2---|
E|---2--1--4--2--1---|

CHORUS

e|--------------------------------------------------|
B|--------------------------------------------------|
G|--------------------------666-666666-444-444444---|  x4
D|---666-666666-666-666666--666-666666-444-444444---|
A|---666-666666-666-666666--444-444444-222-222222---|
E|---444-444444-444-444444--------------------------|

BRIDGE

e|--------------------------------------------------------------|
B|--------------------------------------------------------------|
G|--------4444----------------4444----------------4444----------|
D|---2222-4444-4444-6666-2222-4444-4444-6-xx-2222-4444-4444-6---|
A|---2222-2222-4444-6666-2222-2222-4444-6-xx-2222-2222-4444-6---|
E|---0000------2222-4444-0000------2222-4-xx-0000------2222-4---|



Tap to rate this tab
 
# A B C D E F G H I J K L M N O P Q R S T U V W X Y Z