Motionless In White - Immaculate Misconception tab

Some of Immaculate Misconception by Motionless in White.
billythekiddd6@yahoo.com


Clean vocal part (chorus):
------|----------------|
-2--2-|----------------|
-5--6-|-3---6----------|
------|-3---6---6---4--|
------|-1---4---6---4--|
------|---------6---4--|
x8 each     x16 each and repeat first part throughout chorus


Verse synth part:
--------------------------|
--------------------------|
--------------------------|
-8--/11--\7--/8--\4--\3---|
--------------------------|
--------------------------|
 8's x 16 each, all others x 8 each
Tap to rate this tab
 
# A B C D E F G H I J K L M N O P Q R S T U V W X Y Z