Song name
# A B C D E F G H I J K L M N O P Q R S T U V W X Y Z

Motionless In White - City Lights tab

Motionless in White
Creatures
City Lights
2010

Tabbed By Nick Orvik

Drop C

~~~~~~~~~~~~~~~~~~~~~~~~~~~~~~~~~~~~~~~~~~~~~~~~~~~~~~~~~~~~~~~~~

Guitar

Intro and Verse (until the part, "We are all Alone!!!") 8 times

D|--------------------------|-------------------------|
A|--------------2-222-------|-------------2-222-------|
F|--------2-222-------2-222-|-------2-222-------2-222-|
C|--4-444-------------------|-2-222-------------------|
G|--------------------------|-------------------------|
C|--------------------------|-------------------------|

D|--------------------------|-------------------------|
A|-------------2-222--------|-3-333-3-333-2-222-2-222-|
D|-------2-222--------2-222-|-------------------------|
C|-0-000--------------------|-------------------------|
G|--------------------------|-------------------------|
C|--------------------------|-------------------------|

After the above part 

D|----------------|----------------|----------------|----------------|
A|----------------|----------------|----------------|----------------|
F|----------------|----------------|----------------|----------------|
C|-4~-4~-4-4-44~--|-2~-2~-2-2-22~--|-0~-0~-0-0-00~--|-0~-0~-0-0-00~--|
G|-4~-4~-4-4-44~--|-2~-2~-2-2-22~--|-0~-0~-0-0-00~--|-0~-0~-0-0-00~--|
C|-4~-4~-4-4-44~--|-2~-2~-2-2-22~--|-0~-0~-0-0-00~--|-0~-0~-0-0-00~--|

End On

D|----------------|--------------|
A|----------------|--------------|
F|----------------|--------------|
C|-2~-2~-2-2-22~--|-4~~~---------|
G|-2~-2~-2-2-22~--|-4~~~---------|
C|-2~-2~-2-2-22~--|-4~~~---------|

___________________________________________________________________________

There it is, any questions just message me.


Tap to rate this tab
 
# A B C D E F G H I J K L M N O P Q R S T U V W X Y Z