Song name
# A B C D E F G H I J K L M N O P Q R S T U V W X Y Z

Motionless In White - The Divine Infection tab

Tuning: Drop A
*: Glide pick across A and E strings
X: Muted strings
I did a cover on this song if you want to see it more in depth - 
http://www.youtube.com/watch?v=OP0ND13ePIQ
-----------------------------------------------------------------------------------------|

B :------------------------|----------------------|
F#:------------------------|----------------------|
D :------------------------|----------------------|
A :-55555-8888-3333-5-3-5--|-55555-8888-3333-xxx--|
E :-55555-8888-3333-5-3-5--|-55555-8888-3333-xxx--|
A :-55555-8888-3333-5-3-5--|-55555-8888-3333-xxx--|

B :------------------------|--------------------|
F#:------------------------|--------------------|
D :------------------------|--------------------|
A :-55555-8888-3333-5-3-5--|-55555-8888-3333-*--|
E :-55555-8888-3333-5-3-5--|-55555-8888-3333-*--|
A :-55555-8888-3333-5-3-5--|-55555-8888-3333-*--|

Then here's a part where only the bass plays. (0:18)

And here the guitar falls in again. (0:32)

B :--------------------|
F#:--------------------|
D :--------------------| 2x
A :--------------------|
E :-3-5-6-5-6-5-3-5----|
A :-3-5-6-5-6-5-3-5----|

Then here is the part that first only the bass player played, but now the guitar plays
together with the bass. (0:40)

B :-------------------------------------------------------------|
F#:-------------------------------------------------------------|
D :-------------------------------------------------------------|
A :-55-3-5-6---3-5-6-55--3-5-6--3--6-55-3-5-6--3-5-6-55-3-5-6---|
E :-55-3-5-6---3-5-6-55--3-5-6--3--6-55-3-5-6--3-5-6-55-3-5-6---|
A :-55-3-5-6---3-5-6-55--3-5-6--3--6-55-3-5-6--3-5-6-55-3-5-6---|

B :--------------------|
F#:--------------------|
D :--------------------| 2x
A :--------------------|
E :-3-5-6-5-6-5-3-5----|
A :-3-5-6-5-6-5-3-5----|

B :------------------------|----------------------|
F#:------------------------|----------------------|
D :------------------------|----------------------|
A :-55555-8888-3333-5-3-5--|-55555-8888-3333-xxx--|
E :-55555-8888-3333-5-3-5--|-55555-8888-3333-xxx--|
A :-55555-8888-3333-5-3-5--|-55555-8888-3333-xxx--|

B :------------------------|--------------------|
F#:------------------------|--------------------|
D :------------------------|--------------------|
A :-55555-8888-3333-5-3-5--|-55555-8888-3333-*--|
E :-55555-8888-3333-5-3-5--|-55555-8888-3333-*--|
A :-55555-8888-3333-5-3-5--|-55555-8888-3333-*--|

B :------------------------|
F#:------------------------|
D :-5--8--5--3--5--8--5----|This Part is Strummed
A :-5--8--5--3--5--8--5----|
E :-3--6--3--1--3--6--3----|
A :---------------------8>-| With this i mean that you pull the 8 higher slowly

B :--------------------|
F#:--------------------|
D :--------------------| 4x
A :--------------------|
E :-3-5-6-5-6-5-3-5----|
A :-3-5-6-5-6-5-3-5----|

B :-------------------------------------------------------------|
F#:-------------------------------------------------------------|
D :-------------------------------------------------------------|
A :-55-3-5-6---3-5-6-55--3-5-6--3--6-55-3-5-6--3-5-6-55-3-5-6---|
E :-55-3-5-6---3-5-6-55--3-5-6--3--6-55-3-5-6--3-5-6-55-3-5-6---|
A :-55-3-5-6---3-5-6-55--3-5-6--3--6-55-3-5-6--3-5-6-55-3-5-6---|

B :--------------------|
F#:--------------------|
D :--------------------| 2x
A :--------------------|
E :-3-5-6-5-6-5-3-5----|
A :-3-5-6-5-6-5-3-5----|

B :------------------------|----------------------|
F#:------------------------|----------------------|
D :------------------------|----------------------|
A :-55555-8888-3333-5-3-5--|-55555-8888-3333-xxx--|
E :-55555-8888-3333-5-3-5--|-55555-8888-3333-xxx--|
A :-55555-8888-3333-5-3-5--|-55555-8888-3333-xxx--|

B :------------------------|--------------|
F#:------------------------|--------------|
D :------------------------|--------------|
A :-55555-8888-3333-5-3-5--|-55555-888-*--|
E :-55555-8888-3333-5-3-5--|-55555-888-*--|
A :-55555-8888-3333-5-3-5--|-55555-888-*--|

B :------------------------|
F#:------------------------|
D :-5--8--5--3--5--8--5----| 2x
A :-5--8--5--3--5--8--5----|
E :-3--6--3--1--3--6--3----| This part is strummed
A :---------------------8>-|

B :-------------------------------------------------------------|
F#:-------------------------------------------------------------|
D :-------------------------------------------------------------|
A :-55-3-5-6---3-5-6-55--3-5-6--3--6-55-3-5-6--3-5-6-55-3-5-6---|
E :-55-3-5-6---3-5-6-55--3-5-6--3--6-55-3-5-6--3-5-6-55-3-5-6---|
A :-55-3-5-6---3-5-6-55--3-5-6--3--6-55-3-5-6--3-5-6-55-3-5-6---|

B :------------------------|----------------------|
F#:------------------------|----------------------|
D :------------------------|----------------------|
A :-55555-8888-3333-5-3-5--|-55555-8888-3333-xxx--|
E :-55555-8888-3333-5-3-5--|-55555-8888-3333-xxx--|
A :-55555-8888-3333-5-3-5--|-55555-8888-3333-xxx--|

B :------------------------|--------------------|
F#:------------------------|--------------------|
D :------------------------|--------------------|
A :-55555-8888-3333-5-3-5--|-55555-8888-3333-*--|
E :-55555-8888-3333-5-3-5--|-55555-8888-3333-*--|
A :-55555-8888-3333-5-3-5--|-55555-8888-3333-*--|

B :------------------------|----------------------|
F#:------------------------|----------------------|
D :------------------------|----------------------|
A :-55555-8888-3333-5-3-5--|-55555-8888-3333-xxx--|
E :-55555-8888-3333-5-3-5--|-55555-8888-3333-xxx--|
A :-55555-8888-3333-5-3-5--|-55555-8888-3333-xxx--|

B :------------------------|--------------|
F#:------------------------|--------------|
D :------------------------|--------------|
A :-55555-8888-3333-5-3-5--|-55555-888-*--|
E :-55555-8888-3333-5-3-5--|-55555-888-*--|
A :-55555-8888-3333-5-3-5--|-55555-888-*--|

B :--------------------|
F#:--------------------|
D :--------------------| 4x
A :--------------------|
E :-3-5-6-5-6-5-3-5----|
A :-3-5-6-5-6-5-3-5----|

|------------------------------------------------------------------------------------|
|Thanks! Hope this helped <3 www.Youtube.com/VAALVLA                                 |
|------------------------------------------------------------------------------------|
Tap to rate this tab
# A B C D E F G H I J K L M N O P Q R S T U V W X Y Z