Song name
# A B C D E F G H I J K L M N O P Q R S T U V W X Y Z

Motionless In White - The Divine Infection tab

I am 99% sure that this is correct even though this is my first tab. My band has covered 
this song and this is how we play it. At the very least it sounds right.

Intro:
D|---------------------------|
A|---------------------------|
F|---------------------------|
C|-222222-5555-0000-2-0-2----|
G|-222222-5555-0000-2-0-2----|
C|-222222-5555-0000-2-0-2----|

D|-------------------------|
A|-------------------------|
F|-------------------------|
C|-222222-5555-0000-xxx----|
G|-222222-5555-0000-xxx----|
C|-222222-5555-0000-xxx----|

D|---------------------------|
A|---------------------------|
F|---------------------------|
C|-222222-5555-0000-2-0-2----|
G|-222222-5555=0000-2-0-2----|
C|-222222-5555-0000-2-0-2----|

D|-----------------------------------------|
A|-----------------------------------------|
F|-----------------------------------------|
C|-222222-5555-0000----/////pickslide/////-|
G|-222222-5555=0000----/////pickslide/////-|
C|-222222-5555-0000----/////pickslide/////-|

Then only the bass plays during the first verse
 Then there's the prechorus riff

D|------------------------|
A|------------------------|
F|------------------------|
C|-0h2-xx-3p2-xx-3p2-0h2--|
G|-0h2-xx-3p2-xx-3p2-0h2--|
C|-0h2-xx-3p2-xx-3p2-0h2--|

D|------------------------|
A|------------------------|
F|------------------------|
C|-0h2-xx-3p2-xx-3p2-0h2--|
G|-0h2-xx-3p2-xx-3p2-0h2--|
C|-0h2-xx-3p2-xx-3p2-0h2--|

Then to the 2nd verse:

D|------------------------------|
A|------------------------------|
F|------------------------------|
C|------------------------------|
G|------------------------------|
C|-0-2--0-2-3--0-2-3-2-2--0-2-3-|
PM . .  . . .  . . . . .  . . .

D|------------------------------|
A|------------------------------|
F|------------------------------|
C|------------------------------|
G|------------------------------|
C|-0-2--0-2-3--0-2-3-2-2--0-2-3-|
PM . .  . . .  . . . . .  . . .


Then prechorus riff again
D|------------------------|
A|------------------------|
F|------------------------|
C|-0h2-xx-3p2-xx-3p2-0h2--|
G|-0h2-xx-3p2-xx-3p2-0h2--|
C|-0h2-xx-3p2-xx-3p2-0h2--|

D|------------------------|
A|------------------------|
F|------------------------|
C|-0h2-xx-3p2-xx-3p2-0h2--|
G|-0h2-xx-3p2-xx-3p2-0h2--|
C|-0h2-xx-3p2-xx-3p2-0h2--|

Then chorus

D|------------------------|
A|------------------------|
F|------------------------|
C|-222222-5555-0000-2-0-2-|
G|-222222-5555-0000-2-0-2-|
C|-222222-5555-0000-2-0-2-|

D|----------------------|
A|----------------------|
F|----------------------|
C|-222222-5555-0000-xxx-|
G|-222222-5555-0000-xxx-|
C|-222222-5555-0000-xxx-|

D|------------------------|
A|------------------------|
F|------------------------|
C|-222222-5555-0000-2-0-2-|
G|-222222-5555-0000-2-0-2-|
C|-222222-5555-0000-2-0-2-|

D|-----------------------------------------|
A|-----------------------------------------|
F|-----------------------------------------|
C|-222222-5555-0000----/////pickslide/////-|
G|-222222-5555-0000----/////pickslide/////-|
C|-222222-5555-0000----/////pickslide/////-|

D|---------------------------------|
A|---------------------------------|
F|-222222-555555-222222------------|
C|-222222-555555-222222-555555-----|
G|-000000-333333-000000-555555-----|
C|------------------------555555---|

D|---------------------------------|
A|---------------------------------|
F|-222222-555555-222222------------|
C|-222222-555555-222222-555555-----|
G|-000000-333333-000000-555555-----|
C|------------------------555555---|

Then
D|------------------------|
A|------------------------|
F|------------------------|
C|-0h2-xx-3p2-xx-3p2-0h2--|
G|-0h2-xx-3p2-xx-3p2-0h2--|
C|-0h2-xx-3p2-xx-3p2-0h2--|

D|------------------------|
A|------------------------|
F|------------------------|
C|-0h2-xx-3p2-xx-3p2-0h2--|
G|-0h2-xx-3p2-xx-3p2-0h2--|
C|-0h2-xx-3p2-xx-3p2-0h2--|

D|------------------------|
A|------------------------|
F|------------------------|
C|-0h2-xx-3p2-xx-3p2-0h2--|
G|-0h2-xx-3p2-xx-3p2-0h2--|
C|-0h2-xx-3p2-xx-3p2-0h2--|

D|------------------------|
A|------------------------|
F|------------------------|
C|-0h2-xx-3p2-xx-3p2-0h2--|
G|-0h2-xx-3p2-xx-3p2-0h2--|
C|-0h2-xx-3p2-xx-3p2-0h2--|

Then 3rd verse
D|------------------------------|
A|------------------------------|
F|------------------------------|
C|------------------------------|
G|------------------------------|
C|-0-2--0-2-3--0-2-3-2-2--0-2-3-|
PM . .  . . .  . . . . .  . . .

D|------------------------------|
A|------------------------------|
F|------------------------------|
C|------------------------------|
G|------------------------------|
C|-0-2--0-2-3--0-2-3-2-2--0-2-3-|
PM . .  . . .  . . . . .  . . .

Prechorus Riff:

D|------------------------|
A|------------------------|
F|------------------------|
C|-0h2-xx-3p2-xx-3p2-0h2--|
G|-0h2-xx-3p2-xx-3p2-0h2--|
C|-0h2-xx-3p2-xx-3p2-0h2--|

D|------------------------|
A|------------------------|
F|------------------------|
C|-0h2-xx-3p2-xx-3p2-0h2--|
G|-0h2-xx-3p2-xx-3p2-0h2--|
C|-0h2-xx-3p2-xx-3p2-0h2--|

Chorus:
D|------------------------|
A|------------------------|
F|------------------------|
C|-222222-5555-0000-2-0-2-|
G|-222222-5555-0000-2-0-2-|
C|-222222-5555-0000-2-0-2-|

D|----------------------|
A|----------------------|
F|----------------------|
C|-222222-5555-0000-xxx-|
G|-222222-5555-0000-xxx-|
C|-222222-5555-0000-xxx-|

D|------------------------|
A|------------------------|
F|------------------------|
C|-222222-5555-0000-2-0-2-|
G|-222222-5555-0000-2-0-2-|
C|-222222-5555-0000-2-0-2-|

D|-----------------------------------------|
A|-----------------------------------------|
F|-----------------------------------------|
C|-222222-5555-0000----/////pickslide/////-|
G|-222222-5555-0000----/////pickslide/////-|
C|-222222-5555-0000----/////pickslide/////-|

D|---------------------------------|
A|---------------------------------|
F|-222222-555555-222222------------|
C|-222222-555555-222222-555555-----|
G|-000000-333333-000000-555555-----|
C|------------------------555555---|

D|---------------------------------|
A|---------------------------------|
F|-222222-555555-222222------------|
C|-222222-555555-222222-555555-----|
G|-000000-333333-000000-555555-----|
C|------------------------555555---|

Then Outro:

D|------------------------|
A|------------------------|
F|------------------------|
C|-0h2-xx-3p2-xx-3p2-0h2--|
G|-0h2-xx-3p2-xx-3p2-0h2--|
C|-0h2-xx-3p2-xx-3p2-0h2--|

D|--------------------------|
A|--------------------------|
F|--------------------------|
C|-0h2-xx-3p2-xx-3p2-0h2----|
G|-0h2-xx-3p2-xx-3p2-0h2----|
C|-0h2-xx-3p2-xx-3p2-0h2----|

D|--------------------------|
A|--------------------------|
F|--------------------------|
C|-0h2-xx-3p2-xx-3p2-0h2----|
G|-0h2-xx-3p2-xx-3p2-0h2----|
C|-0h2-xx-3p2-xx-3p2-0h2----|

D|---------------------------|
A|---------------------------|
F|---------------------------|
C|-0h2-xx-3p2-xx-3p2-0h2-----|
G|-0h2-xx-3p2-xx-3p2-0h2-----|
C|-0h2-xx-3p2-xx-3p2-0h2-----|

----------END---------------
If I forgot a part of it (like it repeats an extra time or something) the whole song is 
here, just repeat it as needed. Thank you!
Tap to rate this tab
# A B C D E F G H I J K L M N O P Q R S T U V W X Y Z