Song name
# A B C D E F G H I J K L M N O P Q R S T U V W X Y Z

Motive - The Dormancy Pill tab

www.myspace.com/motivefuckyou

MOTIVE - DORMANCY PILL

BD = Bend down
LR = Let ring
CBU = Continous bend up


    Eb|---------|
    Bb|--0---0--|
GTR Gb|--9---9--| x4    
1+2 Db|---------|              
    Ab|---------|
    Eb|---------|

    Eb|------------------|
    Bb|------0-----------|
GTR Gb|------9-----------| x4   
1+2 Db|------------------|              
    Ab|-7-7--------------|
    Eb|------------8---8-|

    Eb|------------------|
    Bb|------0-----------|
GTR Gb|------9-----------| x8 
1+2 Db|------------------|              
    Ab|-7-7----7-7-------|
    Eb|------------8---8-|

    Eb|-------------------------------------------------|
    Bb|-------------------------------------------------|
GTR Gb|-17-17-17-17-17-17-17-17-17-17-17-17-17-17-17-17-|    
1+2 Db|-------------------------------------------------|              
    Ab|-15-15-15-15-15-15-15-15-15-15-15-15-15-15-15-15-|
    Eb|-------------------------------------------------|

    Eb|-----------------|
    Bb|-----------------|
GTR Gb|-----------------|    
1+2 Db|-3-2-----3-2-----|              
    Ab|-----3-2-----3-2-|
    Eb|-----------------|
        PM  PM  PM  PM

    Eb|-------------------------------------------------|
    Bb|-------------------------------------------------|
GTR Gb|-14-14-14-14-14-14-14-14-14-14-14-14-14-14-14-14-|    
1+2 Db|-------------------------------------------------|              
    Ab|-12-12-12-12-12-12-12-12-12-12-12-12-12-12-12-12-|
    Eb|-------------------------------------------------|

    Eb|-----------------|
    Bb|-----------------|
GTR Gb|-----------------|    
1+2 Db|-----------------|              
    Ab|-3-2-----3-2-----|
    Eb|-----1-0-----1-0-|
        PM  PM  PM  PM

REPEAT PREVIOUS 4 BARS

    Eb|--------------------------------------------|
    Bb|--------------------------------------------|
GTR Gb|---------9---------11---------12---------11-|    
1+2 Db|---------7---------9----------10---------9--|              
    Ab|---------8---------10---------8----------10-|
    Eb|-0-0-0-0---2-2-0-0----3-2-0-0----2-2-0-0----|
        PM  PM    PM  PM     PM  PM     PM  PM

    Eb|------------------------------------|
    Bb|------------------------------------|
GTR Gb|----------7-----------------7-------|    
1+2 Db|-2--3--5--7--5--3--2--3--5--7--5--3-|              
    Ab|-2--3--5--6--5--3--2--3--5--6--5--3-|
    Eb|-0--1--3--5--3--1--0--1--3--5--3--1-|
        PM PM PM    PM PM PM PM PM    PM PM

PLAY TWO SECTIONS x4

    Eb|---------------------------------------------------|
    Bb|-----131313-121212------------101010-121212--------|
GTR Gb|-555---------------121212-444---------------101010-|    
1+2 Db|---------------------------------------------------|              
    Ab|---------------------------------------------------|
    Eb|---------------------------------------------------|

    Eb|-------------------------------------------|
    Bb|-------------------------------------------|
GTR Gb|-------------------------------------------|    
 1  Db|-2--------------------2--------------------|              
    Ab|-2-(LR)---------------2-(LR)---------------|
    Eb|-0--------------------0--------------------|

    Eb|-----------3-0-----3-------------3-0-------|
    Bb|-----------------1---------------------1---|
GTR Gb|---5p4-5p4-----4---------5p4-5p4-----4---4-| x3    
 2  Db|-------------------------------------------|              
    Ab|-------------------------------------------|
    Eb|-------------------------------------------|

    Eb|-------------------------------------------|
    Bb|-------------------------------------------|
GTR Gb|-------------------------------------------|    
 1  Db|-2--------------------2--------------------|              
    Ab|-2-(LR)---------------2-(LR)---------------|
    Eb|-0--------------------0--------------------|

    Eb|-----------3-0-----3-----------------------|
    Bb|-----------------1-------------------------|
GTR Gb|---5p4-5p4-----4---------5p4p0-------------|     
 2  Db|-------------------------------------------|              
    Ab|-------------------------------------------|
    Eb|-------------------------------------------|

    Eb|-------------------------------------------------|
    Bb|-------------------------------------------------|
GTR Gb|-17-17-17-17-17-17-17-17-17-17-17-17-17-17-17-17-|    
1+2 Db|-------------------------------------------------|              
    Ab|-15-15-15-15-15-15-15-15-15-15-15-15-15-15-15-15-|
    Eb|-------------------------------------------------|

    Eb|-----------------|
    Bb|-----------------|
GTR Gb|-----------------|    
1+2 Db|-3-2-----3-2-----|              
    Ab|-----3-2-----3-2-|
    Eb|-----------------|
        PM  PM  PM  PM

    Eb|-------------------------------------------------|
    Bb|-------------------------------------------------|
GTR Gb|-14-14-14-14-14-14-14-14-14-14-14-14-14-14-14-14-|    
1+2 Db|-------------------------------------------------|              
    Ab|-12-12-12-12-12-12-12-12-12-12-12-12-12-12-12-12-|
    Eb|-------------------------------------------------|

    Eb|-----------------|
    Bb|-----------------|
GTR Gb|-----------------|    
1+2 Db|-----------------|              
    Ab|-3-2-----3-2-----|
    Eb|-----1-0-----1-0-|
        PM  PM  PM  PM


REPEAT PREVIOUS 4 BARS

    Eb|--------------------------------------------|
    Bb|--------------------------------------------|
GTR Gb|---------9---------11---------12---------11-|    
1+2 Db|---------7---------9----------10---------9--|              
    Ab|---------8---------10---------8----------10-|
    Eb|-0-0-0-0---2-2-0-0----3-2-0-0----2-2-0-0----|
        PM  PM    PM  PM     PM  PM     PM  PM

    Eb|------------------------------------|
    Bb|------------------------------------|
GTR Gb|----------7-----------------7-------|    
1+2 Db|-2--3--5--7--5--3--2--3--5--7--5--3-|              
    Ab|-2--3--5--6--5--3--2--3--5--6--5--3-|
    Eb|-0--1--3--5--3--1--0--1--3--5--3--1-|
        PM PM PM    PM PM PM PM PM    PM PM

PLAY TWO SECTIONS x4

    Eb|---------------------------------------------------|
    Bb|-----131313-121212------------101010-121212--------|
GTR Gb|-555---------------121212-444---------------101010-|    
1+2 Db|---------------------------------------------------|              
    Ab|---------------------------------------------------|
    Eb|---------------------------------------------------|

    Eb|-------------------------------------------------------|
    Bb|-------------------------------------------------------|
GTR Gb|-------------------------------------------------------|    
 1  Db|-2------2------clink------2-------------2--------------|              
    Ab|-2-(LR)-2-(LR)------------2-(LR)--------2-(LR)---------|
    Eb|-0------0-----------------0-------------0--------------|

    Eb|-------------------------------------------------------|
    Bb|-------------------------------------------------------|
GTR Gb|-----------------------------4(BD)4(BD)----------------|    
 2  Db|----------------5p45p45p4------------------4(BD)-4(BD)-|              
    Ab|-------------------------------------------------------|
    Eb|-------------------------------------------------------|

        Eb|----------|
    Bb|----------|
GTR Gb|----------|   
 1  Db|----------| x4              
    Ab|----------|
    Eb|-0-(LR)---|

    Eb|----------|
    Bb|----------|
GTR Gb|----4h5---|   
1+2 Db|--------3-| x4             
    Ab|----------|
    Eb|----------|

    Eb|--------777-----777----------------------|
    Bb|------------666-----666---------6(CBU)---|
GTR Gb|-----------------------------------------|    
 1  Db|-----------------------------------------|              
    Ab|-----------------------------------------|
    Eb|-0-(LR)------------------0-(LR)----------|

    Eb|-----------------------------------------|
    Bb|-----------------------------------------|
GTR Gb|----4h5------------------------4h5-------|    
1+2 Db|--------3--------------------------3-----|              
    Ab|-----------------------------------------|
    Eb|-----------------------------------------|

    Eb|---------------------------|
    Bb|---------------------------|
GTR Gb|-------2h5p2---------------|    
1+2 Db|-2--2--------3-3--3--3--3--|  x8             
    Ab|-2--2----------3--3--3--3--|
    Eb|-0--0----------1001001001--|
                       PM PM PM

    Eb|---------------------------|
    Bb|---------------------------|
GTR Gb|---------------------------|    
1+2 Db|-2-------------3--3--3--3--|  x4             
    Ab|-2-(LR)--------3--3--3--3--|
    Eb|-0-------------1001001001--|
                       PM PM PM

END
Tap to rate this tab
 
# A B C D E F G H I J K L M N O P Q R S T U V W X Y Z