Song name
# A B C D E F G H I J K L M N O P Q R S T U V W X Y Z

Motive - Icicles tab

www.myspace.com/motivefuckyou/

MOTIVE - ICICLES

     Eb|-----------------------------------------|
     Bb|-7---------------------------------------|
GTR  Gb|-4---------------------------------------|    
1+2  Db|-5---------------------------------------|              
     Ab|-7---------------------------------------|
     Eb|-----------------------------------------|

-------------------------------------------------------------

     Eb|-----------------------------------------------|
     Bb|-3-3-3-3-3-3--12-12-12-12-12-12-12-3-3-3-3-3-3-|
GTR  Gb|-4-4-4-5-5-4--11-11-11-12-12-12-11-4-4-4-5-5-4-|    
1+2  Db|-2-2-2-2-2-2--9--9--9--9--9--9--9--2-2-2-2-2-2-|              
     Ab|-----------------------------------------------|
     Eb|-----------------------------------------------|

     Eb|-12-------7-----|
     Bb|----12------5---|
GTR  Gb|-------14-----7-|              x2    
1+2  Db|----------------|              
     Ab|----------------|
     Eb|----------------|

-------------------------------------------------------------

     Eb|-----------------------------------------------|
     Bb|-3-3-3-3-3-3--12-12-12-12-12-12-12-3-3-3-3-3-3-|
GTR  Gb|-4-4-4-5-5-4--11-11-11-12-12-12-11-4-4-4-5-5-4-|    
1+2  Db|-2-2-2-2-2-2--9--9--9--9--9--9--9--2-2-2-2-2-2-|              
     Ab|-----------------------------------------------|
     Eb|-----------------------------------------------|

     Eb|-12-------7-----|
     Bb|----12------5---|
GTR  Gb|-------14-----7-|                  
1+2  Db|----------------| x2             
     Ab|----------------|
     Eb|----------------|

     Eb|----------------------------------------|
     Bb|-12 sustain-----------------------------|
GTR  Gb|----------------------------------------|    
1+2  Db|----------------------------------------|              
     Ab|----------------------------------------|
     Eb|----------------------------------------|

     Eb|---------------------------------------------------|
     Bb|-------------6---5-----8-8-8--------------3--5-5-5-|
GTR  Gb|-----4---3-----------5-----------4---5-------------|    
 1   Db|-----------------------5-5-5-----------------------|              
     Ab|-2-2-2-2-2-2-2-2-2-2-2-------2-2-2-2-2-2-2-2-2-2-2-|
     Eb|-0-0-0-0-0-0-0-0-0-0-0-------0-0-0-0-0-0-0-0-0-0-0-|
           PM  PM  PM  PM  PM          PM  PM  PM  PM  PM

     Eb|----------------------------------------------|
     Bb|-------------666-555-----------------333-555--|
GTR  Gb|-----444-333---------555-----444-555----------|    
 2   Db|-222---------------------222------------------|              
     Ab|----------------------------------------------|
     Eb|----------------------------------------------|

     Eb|----------------------------------------|
     Bb|-7--------------------------------------|
GTR  Gb|-4--------------------------------------|    
1+2  Db|-5--------------------------------------|              
     Ab|-7--------------------------------------|
     Eb|----------------------------------------|


     Eb|----------------------------------------|
     Bb|-------------------3--------------------|
GTR  Gb|---4-2-------4-2------------------------|    
1+2  Db|-------4---------4----------------------|              
     Ab|---------5------------------------------|
     Eb|----------------------------------------|

     Eb|----------------------------------------|
     Bb|-------------------3--------------------|
GTR  Gb|---4-2-------4-2------------------------|    
 1   Db|-------4---------4----------------------|              
     Ab|---------5------------------------------|
     Eb|----------------------------------------|

     Eb|----------------------10----------------|
     Bb|-12-10-------12-10----------------------|
GTR  Gb|-------11----------11-------------------|    
 2   Db|----------12----------------------------|              
     Ab|----------------------------------------|
     Eb|----------------------------------------|

     Eb|-----7-----------7--8--7--10--15--8-----7-------12-|
     Bb|-5------8--7--5----------------------7-------------|
GTR  Gb|---------------------------------------------------|    
1+2  Db|---------------------------------------------------|              
     Ab|---------------------------------------------------|
     Eb|---------------------------------------------------|

     Eb|----------10--------------------------------|
     Bb|-------------------7-5----------------------|
GTR  Gb|-------11--------9----------7-8-------------|    
1+2  Db|-----9---------7----------5-----7-7-7-5-5-5-|              
     Ab|---7----------------------------------------|
     Eb|-0-----------0---------0--------------------|

          Eb|------------------------------------------------|
     Bb|------------------------------------------------|
GTR  Gb|-12-14-15^---14h15p14-12---7---7/9---12-11-9-11-|    
 1   Db|-----------------------------9------------------|              
     Ab|------------------------------------------------|
     Eb|------------------------------------------------|

     Eb|----------10--------------------------------|
     Bb|-------------------7-5----------------------|
GTR  Gb|-------11--------9----------7-8-------------|    
 2   Db|-----9---------7----------5-----7-7-7-5-5-5-|              
     Ab|---7----------------------------------------|
     Db|-0-----------0---------0--------------------|

     Eb|-----------------------------------------------------|
     Bb|-------------12-13-15--15-12h13p12-12-15-13-12-13-17-|
GTR  Gb|-11h12p11-7------------------------------------------|    
 1   Db|-----------------------------------------------------|              
     Ab|-----------------------------------------------------|
     Eb|-----------------------------------------------------|

     Eb|----------10--------------------------------|
     Bb|-------------------7-5----------------------|
GTR  Gb|-------11--------9----------7-8-------------|    
1+2  Db|-----9---------7----------5-----7-7-7-5-5-5-|              
     Ab|---7----------------------------------------|
     Db|-0-----------0---------0--------------------|

     Eb|--------2----2--------2----------------------|
     Bb|----------3--0----------3--------------------|
GTR  Gb|-5-----------0-------------------------------|    
1+2  Db|-4----2------0----2--------------------------|              
     Ab|-2----2------2----2--------------------------|
     Db|-3----0------3----0--------------------------|

     Eb|--------------------------77----------|
     Bb|-----------------------------88-77----|
GTR  Gb|-7-------7-------7-----------------77-|    
1+2  Db|-4-------4-2-2-2-4-2-2-2--------------|              
     Ab|-5-2-2-2-5-2-2-2-5-2-2-2--------------|
     Db|-7-0-0-0-7-0-0-0-7-0-0-0--------------|

END
Tap to rate this tab
 
# A B C D E F G H I J K L M N O P Q R S T U V W X Y Z