Song name
# A B C D E F G H I J K L M N O P Q R S T U V W X Y Z

Motley Crue - Saints Of Los Angeles tab

#----------------------------------PLEASE NOTE---------------------------------#
#This file is the author's own work and represents their interpretation of the #
#song. You may only use this file for private study, scholarship, or research. #
#------------------------------------------------------------------------------#

SAINTS OF LOS ANGELES
As recorded by Motley Crue
(From the 2008 Album SAINTS OF LOS ANGELES)

Transcribed by tonedeafidiot
	

Music by Nikki Sixx, James Michael, Dj Ashba, and Marti Frederikson


Gtr I (D G C F A D) - 'Guitar 1'
Gtr II (D G C F A D) - 'Guitar 2'
Gtr III (D G C F A D) - 'Guitar 3'
Gtr IV (D G C F A D) - 'Guitar 4'

   Intro
   4/4
    Gtrs I, II
    Wx8
||----------||
||o--------o||
||----------||
||----------||
||o--------o||
||----------||


            PM    PM                    PM    PM    ~
  E S S S S S S S S S S E E   E S S S S S S S S S S Q
|---------------------------|---------------------------|
|---------------------------|---------------------------|
|---2p0-2p0---2p0---2p0-0-2-|---2p0-2p0---2p0---2p0-3---|
|---2p0-2p0---2p0---2p0-0-2-|---2p0-2p0---2p0---2p0-3---|
|-0---------0-----0---------|-0---------0-----0-----1---|
|---------------------------|---------------------------|


                     PM    PM                         PM    PM    ~
         E   S S S S S S S S S S E E    E  S S  S   S S S S S S S Q
|------------------------------------|-------------------------------|
|------------------------------------|-------------------------------|
|------------2p0-2p0---2p0---2p0-0-2-|-----2p0--2p==0---2p0---2p0-3--|
|------------2p0-2p0---2p0---2p0-0-2-|-----2p0--2p==0---2p0---2p0-3--|
|--------0-----------0-----0---------|--0-------------0-----0-----1--|
|------------------------------------|-------------------------------|
|
| Gtr III
| \4.5___/0_____________________________________\4.5
| a     +W                             +Q      +H.
|------------------------------------|-------------------------------|
|------------------------------------|-------------------------------|
|------------------------------------|-------------------------------|
|------------------------------------|-------------------------------|
|------------------------------------|-------------------------------|
|-0-----(0)--------------------------|-(0)-----(0)-------------------|
|
| Gtr IV
|        W                              W
|------------------------------------|-------------------------------|
|------------------------------------|-------------------------------|
|------------------------------------|-------------------------------|
|------------------------------------|-------------------------------|
|------------------------------------|-------------------------------|
|------------------------------------|-------------------------------|


                PM          PM                                       PM    PM    ~
   E    S S S S S S   S     S   S    S E   E       E     S S   S   S S S S S S S Q
|----------------------------------------------|--------------------------------------------|
|----------------------------------------------|--------------------------------------------|
|-------2p0-2p0---2p==0---------2p===0-0---2---|---------2p0---2p==0---2p0---2p0-3----------|
|-------2p0-2p0---2p==0---------2p===0-0---2---|---------2p0---2p==0---2p0---2p0-3----------|
|--0------------0-----------0------------------|---0-----------------0-----0-----1----------|
|----------------------------------------------|--------------------------------------------|
|
|                     \1.5/     \1.5/                          \7
|  H                 +E        +Q.                +Q          +H.
|----------------------------------------------|--------------------------------------------|
|----------------------------------------------|--------------------------------------------|
|-<5>---------------(<5>)-----(<5>)------------|-(<5>)-------(<5>)--------------------------|
|----------------------------------------------|--------------------------------------------|
|----------------------------------------------|--------------------------------------------|
|----------------------------------------------|--------------------------------------------|
|
|  S  S S S S S S S   S     S   S    S S S S S     S   S S S   S   S S S S S S S S S S S
|----------------------------------------------|--------------------------------------------|
|----------------------------------------------|--------------------------------------------|
|----------------------------------------------|--------------------------------------------|
|----------------------------------------------|--------------------------------------------|
|--x--x-x-x-x-x-x-x---x-----x---x----x-x-x-x-x-|---x---x-x-x---x---x-x-x-x-x-x-x-x-x-x-x----|
|--x--x-x-x-x-x-x-x---x-----x---x----x-x-x-x-x-|---x---x-x-x---x---x-x-x-x-x-x-x-x-x-x-x----|


  Gtr IV
  S S S S S S S S S S S S S S S S
|---------------------------------|
|---------------------------------|
|---------------------------------|
|---------------------------------|
|-x-x-x-x-x-x-x-x-x-x-x-x-x-x-x-x-|
|-x-x-x-x-x-x-x-x-x-x-x-x-x-x-x-x-|
|
| Gtrs I, II
|             PM    PM
| E   S S S S S S S S S S E   E
|---------------------------------|
|---------------------------------|
|-----2p0-2p0---2p0---2p0-0---2---|
|-----2p0-2p0---2p0---2p0-0---2---|
|-0-----------0-----0-------------|
|---------------------------------|


                                         1st Verse
  S S S S S S S S  Q       +E   +E         +E  Q      E   H
|--------------------------------------||--------------------------------|
|--------------------------------------||--------------------------------|
|--------------------------------------||--------------------------------|
|--------------------------------------||--------------------------------|
|-x-x-x-x-x-x-x-x-14b15===(14)r(14)b15-||-(14)-x\------------------------|
|-x-x-x-x-x-x-x-x----------------------||--------------------------------|
|
|                                              PM-|   PM--|   PM|   PM|
| E   S S S S S S +Q.           +E          E  S  S E S S S S S S E S S
|--------------------------------------||--------------------------------|
|--------------------------------------||--------------------------------|
|-----2p0-2p0--------------------------||---2-------2-------2-----2------|
|-----2p0-2p0--------------------------||---2-------2-------2-----2------|
|-0-------------3-(3)b4---------(3)----||---0--0--0-0-0-0-0-0-0-0-0-0-0--|
|--------------------------------------||--------------------------------|


  H           S  S S S  Q    W
|--------------------------|-----------------------------|
|--------------------------|-----------------------------|
|-------------x-15-x-x-15--|-----------------------------|
|-------------x-15-x-x-15--|-----------------------------|
|-------------x-13-x-x-13--|-----------------------------|
|--------------------------|-----------------------------|
|
|   PM|   PM--|    PM|         PM--|   PM--|   PM|   PM
| E S S E S S S  S S S  Q    S S S S E S S S S S S E S S
|--------------------------|-----------------------------|
|--------------------------|-----------------------------|
|-2-----2--------2------3--|-5-------5-------5-----5-----|
|-2-----2--------2------3--|-5-------5-------5-----5-----|
|-0-0-0-0-0-0-0--0-0-0--1--|-3-3-3-3-3-3-3-3-3-3-3-3-3-0-|
|--------------------------|-----------------------------|


  H            S   S   S   S   S   S   S   S
|-----------------------------------------------|
|-----------------------------------------------|
|-------------<5>-<5>-<5>-<5>-<5>-<5>-<5>-<5>---|
|-----------------------------------------------|
|-----------------------------------------------|
|-----------------------------------------------|
|
|   PM|   PM--|        PM-|
| E S S E S S  S   S   S   S   Q
|-----------------------------------------------|
|-----------------------------------------------|
|------------------------------3----------------|
|-5-----5----------5-----------3----------------|
|-5-----5----------5-----------1----------------|
|-3-3-3-3-3-3--3---3---3---0--------------------|


  Gtrs I, II
    PM|   PM--|   PM|   PM|     PM|   PM--|   PM|
  E S S E S S S S S S E S S   E S S E S S S S S S Q
|---------------------------|------------------------|
|---------------------------|------------------------|
|-2-----2-------2-----2-----|-2-----2-------2-----3--|
|-2-----2-------2-----2-----|-2-----2-------2-----3--|
|-0-0-0-0-0-0-0-0-0-0-0-0-0-|-0-0-0-0-0-0-0-0-0-0-1--|
|---------------------------|------------------------|


    PM--|   PM--|   PM|   PM
  S S S S E S S S S S S E S S
|-----------------------------|
|-----------------------------|
|-5-------5-------5-----5-----|
|-5-------5-------5-----5-----|
|-3-3-3-3-3-3-3-3-3-3-3-3-3-0-|
|-----------------------------|


                                               $
  Gtr IV
                                           \7
   S   S   S   S   S   S   S   S  Q       +Q
|----------------------------------------------||
|----------------------------------------------||
|-<5>-<5>-<5>-<5>-<5>-<5>-<5>-<5>-0-------(0)--||
|----------------------------------------------||
|----------------------------------------------||
|----------------------------------------------||
|
| Gtrs I, II
|          PM-|            PM-----|   PM|
|  E       S   S   E       S   S  S S S S  Q
|----------------------------------------------||
|----------------------------------------------||
|------------------------------------------3---||
|--5---------------5----------------5------3---||
|--5---------------5----------------5------1---||
|--3-------3---3---3-------3---3--3-3-3-0------||


 Pre-Chorus
  W                      W
|---------------------|-------------------------|
|---------------------|-------------------------|
|---------------------|-------------------------|
|---------------------|-------------------------|
|---------------------|-------------------------|
|---------------------|-------------------------|
|
|   PM   PM|     PM~       PM    PM|     PM ~~
| E E E. S +S  S E Q     E E  E. S +S  S E  Q
|---------------------|-------------------------|
|---------------------|-------------------------|
|---------------------|-------------------------|
|-9---9------------9--|-10---10------------10---|
|-7---7------------7--|--7----7-------------7---|
|---0----0-(0)-0-0----|----0-----0-(0)-0-0------|


  Gtr III
   W                        W
|-------------------------|----------------------------||
|-------------------------|----------------------------||
|-------------------------|----------------------------||
|-------------------------|----------------------------||
|-------------------------|----------------------------||
|-------------------------|----------------------------||
|
|    PM    PM------|
|  E E  E. S +S  S E  Q     E. S +E  E +S  E S S S S S
|-------------------------|----------------------------||
|-------------------------|----------------------------||
|-------------------------|----------------------------||
|-11---11-----------------|-2--3-(3)-4-(4)-5---x-x-x-x-||
|--7----7-----------------|-2--3-(3)-4-(4)-5---x-x-x-x-||
|----0-----0-(0)-0-0S17\--|-0--1-(1)-2-(2)-3---x-x-x-x-||


 Chorus
   E  E  E  E    E    E  E  E
|-------------------------------|
|-------------------------------|
|-------------------------------|
|-14-14-14-14---14S==10-10-10---|
|-------------------------------|
|-12-12-12-12---12S===8--8--8---|
|
|                PM|
|  E  E  E  S S  S S  E  E  S S
|-------------------------------|
|-------------------------------|
|--2--2--2--2-2-----------------|
|--2--2--2--2-2--x----3--3--x-x-|
|--0--0--0--0-0--x----3--3--x-x-|
|----------------x-0--1--1--x-x-|


   E  E  E  E    E    E  E  E    E  E  E  E    E    E  E  E
|-----------------------------|-------------------------------|
|-----------------------------|-------------------------------|
|-----------------------------|-------------------------------|
|-12-14-14-15---14---12-14-12-|-12-14-14-15---14---12-14-12---|
|-----------------------------|-------------------------------|
|-10-12-12-13---12---10-12-10-|-10-12-12-13---12---10-12-10---|
|
|                PM|                           PM|
|  E  E  E  S S  S S  E  E  E    E  E  E  S S  S S  E  E  S S
|-----------------------------|-------------------------------|
|-----------------------------|-------------------------------|
|--7--7--7--7-7---------------|--2--2--2--2-2-----------------|
|--7--7--7--7-7--x-x--5--5--5-|--2--2--2--2-2--x----3--3--x-x-|
|--5--5--5--5-5--x-x--5--5--5-|--0--0--0--0-0--x----3--3--x-x-|
|----------------x-x--3--3--3-|----------------x-0--1--1--x-x-|


   E  E  E  E    E    E  E    E
|--------------------------------|
|--------------------------------|
|--------------------------------|
|-12-14-14-15---14---12-14---12--|
|--------------------------------|
|-10-12-12-13---12---10-12---10--|
|
|                PM|     PM|
|  E  E  E  S S  S S  E  S S  E
|--------------------------------|
|--------------------------------|
|--7--7--7--7-7------------------|
|--7--7--7--7-7--x-x--5--x-x--5--|
|--5--5--5--5-5--x-x--5--x-x--5--|
|----------------x-x--3--x-x--3--|


   E  E  E  E    E    E  E  E
|-------------------------------|
|-------------------------------|
|-------------------------------|
|-12-14-14-15---14---12-14-12---|
|-------------------------------|
|-10-12-12-13---12---10-12-10---|
|
|                PM|
|  E  E  E  S S  S S  E  E  S S
|-------------------------------|
|-------------------------------|
|--2--2--2--2-2-----------------|
|--2--2--2--2-2--x----3--3--x-x-|
|--0--0--0--0-0--x----3--3--x-x-|
|----------------x-0--1--1--x-x-|


                                                   To Coda
   E  E  E  E    E    E  E  E      E  E  E  E  E  E  E  E
|-------------------------------|--------------------------|
|-------------------------------|--------------------------|
|-------------------------------|--------------------------|
|-12-14-14-15---14---12-14-12---|-10-10-10-10-10-10-10-10--|
|-------------------------------|--------------------------|
|-10-12-12-13---12---10-12-10---|--8--8--8--8--8--8--8--8--|
|
|                PM|               PM|         PM|
|  E  E  E  S S  S S  E  E  S S    E  E  E  E  E  E  E  E
|-------------------------------|--------------------------|
|-------------------------------|--------------------------|
|--7--7--7--7-7-----------------|--------------------------|
|--7--7--7--7-7--x-x--5--5--5---|--------3--3--------3--3--|
|--5--5--5--5-5--x-x--5--5--5---|--3--3--3--3--3--3--3--3--|
|----------------x-x--3--3--3p0-|--1--1--1--1--1--1--1--1--|


                         Interlude
   Q   E E E E  E  E       W
|----------------------||-----------------------------|
|----------------------||-----------------------------|
|----------------------||-----------------------------|
|-12\------------------||-----------------------------|
|----------------------||-(0)-------------------------|
|-10\--3-3-3-3--3--3b4-||-----------------------------|
|
|                                     PM    PM
|  Q   H        Q          E  S S S S S S S S S S E E
|----------------------||-----------------------------|
|----------------------||-----------------------------|
|----------------------||-----2p0-2p0---2p0---2p0-0-2-|
|--5\------------------||-----2p0-2p0---2p0---2p0-0-2-|
|--5\------------------||--0----------0-----0---------|
|--3\----------15\-----||-----------------------------|


  +W
|-----------------------------|
|-----------------------------|
|-----------------------------|
|-----------------------------|
|-(0)-------------------------|
|-----------------------------|
|
|             PM    PM    ~
|  E  S S S S S S S S S S Q
|-----------------------------|
|-----------------------------|
|-----2p0-2p0---2p0---2p0-3---|
|-----2p0-2p0---2p0---2p0-3---|
|--0----------0-----0-----1---|
|-----------------------------|


   \4___/2_______________________________
   a   +W
|---------------------------------------|
|---------------------------------------|
|---------------------------------------|
|---------------------------------------|
|-(0)--(0)------------------------------|
|---------------------------------------|
|
| Gtr IV
|       E   S S S S S S S S S S E E
|---------------------------------------|
|---------------------------------------|
|-----------2p0-2p0-2p0-2p0-2p0-5-5b5.5-|
|---------------------------------------|
|-------0-------------------------------|
|---------------------------------------|
|
| Gtrs I, II
|                   PM    PM
|       E   S S S S S S S S S S E E
|---------------------------------------|
|---------------------------------------|
|-----------2p0-2p0---2p0---2p0-0-2-----|
|-----------2p0-2p0---2p0---2p0-0-2-----|
|-------0-----------0-----0-------------|
|---------------------------------------|


   /0.5______________________/
  +H.                       +E.     +S
|----------------------------------------|
|----------------------------------------|
|----------------------------------------|
|----------------------------------------|
|-(0)-----------------------(0)-----(0)--|
|----------------------------------------|
|
|                     \7
|  E     S S S S S S  H
|----------------------------------------|
|----------------------------------------|
|--------2p0-2p0-2p0-<5>-----------------|
|----------------------------------------|
|--0-------------------------------------|
|----------------------------------------|
|
|  E     S S S S S S +Q.        +E
|----------------------------------------|
|----------------------------------------|
|--------2p0-2p0-------------------------|
|--------2p0-2p0-------------------------|
|--0---------------3-(3)b4------(3)------|
|----------------------------------------|


 2nd Verse
    PM|   PM--|   PM|   PM|     PM|   PM--|   PM|
  E S S E S S S S S S E S S   E S S E S S S S S S Q
|---------------------------|------------------------|
|---------------------------|------------------------|
|-2-----2-------2-----2-----|-2-----2-------2-----3--|
|-2-----2-------2-----2-----|-2-----2-------2-----3--|
|-0-0-0-0-0-0-0-0-0-0-0-0-0-|-0-0-0-0-0-0-0-0-0-0-1--|
|---------------------------|------------------------|


    PM--|   PM--|   PM|   PM      PM|   PM--|   PM|
  S S S S E S S S S S S E S S   E S S E S S S S S S Q
|-----------------------------|-------------------------|
|-----------------------------|-------------------------|
|-5-------5-------5-----5-----|---------------------3---|
|-5-------5-------5-----5-----|-5-----5-------5-----3---|
|-3-3-3-3-3-3-3-3-3-3-3-3-3-0-|-5-----5-------5-----1---|
|-----------------------------|-3-3-3-3-3-3-3-3-3-0-----|


                                                D.S. al Coda
    PM|   PM--|   PM--|   PM|     PM|   PM
  E S S E S S S S S S S S S S   E S S E S S S S S S S S S S
|-----------------------------|------------------------------|
|-----------------------------|------------------------------|
|-2-----2-------2-------2-----|-2-----2----------------------|
|-2-----2-------2-------2-----|-2-----2---0-x-x-x-x-x-x-x-x--|
|-0-0-0-0-0-0-0-0-0-0-0-0-0-0-|-0-0-0-0-0-0-x-x-x-x-x-x-x-x--|
|-----------------------------|-------------x-x-x-x-x-x-x-x--|


 2:28                    Guitar Solo
  &
   Gtr IV
    \7
                                 ~~~~~~~~~~~~~~~~
    W                     Q      Q        +Q.          +S   S
|----------------------||--------------------------------------|
|--12------------------||-5------5--------(5)---------------4s=|
|--12------------------||-8b10---8b10-----(8)b10-------(8)\----|
|--12------------------||--------------------------------------|
|----------------------||--------------------------------------|
|----------------------||--------------------------------------|
|
|  Gtr I               Gtrs I, II
|   PM-|     PM|                           PM----|
|   E  E E E E E  E  E    E    E E    S S  S     S E E  S   S
|----------------------||--------------------------------------|
|----------------------||--------------------------------------|
|----------------------||-2----2-2----2-2----------------------|
|--------5-5------5--5-||-2----2-2----2-2--x-------3-3--x---x--|
|---5--5-5-5-5-5--5--5-||-0----0-0----0-0--x-------3-3--x---x--|
|---3--3-3-3-3-3--3--3-||------------------x-----0-1-1--x---x--|
|
|  Gtr II
|   PM-|     PM|
|   E  E E E E E  Q       W
|----------------------||--------------------------------------|
|----------------------||--------------------------------------|
|----------------------||--------------------------------------|
|--------5-5-----------||--------------------------------------|
|---5--5-5-5-5-5-------||--------------------------------------|
|---3--3-3-3-3-3-13\---||--------------------------------------|


   E S  S  S  S E   +S     S S  S  S  S e
|----8----10----8---(8)\-----8----10----8-|
|-10---10----10----------/10---10----10---|
|-----------------------------------------|
|-----------------------------------------|
|-----------------------------------------|
|-----------------------------------------|
|
|                    PM--|
|  E E     E    S S  S     S E     E    E
|-----------------------------------------|
|-----------------------------------------|
|--7-7-----7----7-7-----------------------|
|--7-7-----7----7-7--x-----x-5-----5----5-|
|--5-5-----5----5-5--x-----x-5-----5----5-|
|--------------------x-----x-3-----3----3-|


           ~~~~~~~~~~~~
  Q      E E       +E.      S   +E.    S
|------------------------------------------|
|-8b10---8-8pb10---(8)-----<7>-(<7>)---4s==|
|------------------------------------------|
|------------------------------------------|
|------------------------------------------|
|------------------------------------------|
|
|                   PM-|
| E    E E S     S  S  S E       E   S S
|------------------------------------------|
|------------------------------------------|
|-2----2-2-2-----2-------------------------|
|-2----2-2-2-----2--x----3-------3---x-x---|
|-0----0-0-0-----0--x----3-------3---x-x---|
|-------------------x--0-1-------1---x-x---|


                                                             ~~~~~
   E S  S  S  S E   +S   S S S S S E    Q.         E        +Q.        E
|----8----10----8---(8)\-8-7-5-7-5---|-------------------------------------|
|-10---10----10--------------------8-|-[8]b10-----[8]b10---([8])-------0---|
|------------------------------------|-------------------------------------|
|------------------------------------|-------------------------------------|
|------------------------------------|-------------------------------------|
|------------------------------------|-------------------------------------|
|
|                    PM--|     PM|                           PM--|
|  E E     E    S S  S   S E   S S E    E     E E  S     S   S   S E E S S
|------------------------------------|-------------------------------------|
|------------------------------------|-------------------------------------|
|--7-7-----7----7-7------------------|--2-----2-2--2-----2-----------------|
|--7-7-----7----7-7--x---x-5---x-x-5-|--2-----2-2--2-----2---x-----3-3-x-x-|
|--5-5-----5----5-5--x---x-5---x-x-5-|--0-----0-0--0-----0---x-----3-3-x-x-|
|--------------------x---x-3---x-x-3-|-----------------------x---0-1-1-x-x-|


   E     E      E      E       Q         Q
|--8-----8------8------7-------8--------10\---------|
|-11b13-11pb13-11pb13-10b12---11b13-----13b15\------|
|---------------------------------------------------|
|---------------------------------------------------|
|---------------------------------------------------|
|---------------------------------------------------|
|
|                              PM---|
|  E     E      E      S    S  S    S E  E     S S
|---------------------------------------------------|
|---------------------------------------------------|
|--7-----7------7------7----7-----------------------|
|--7-----7------7------7----7--x----x-5--5-----5----|
|--5-----5------5------5----5--x----x-5--5-----5----|
|------------------------------x----x-3--3-----3p0--|


  |-----6-----| |-----6-----| |-----6-----|  |----6-----|
  S S S S S   S S S S S S   S S S S S S   S  S  S S S S S
|-3p1p0---------3p1p0---------3p1p0----------3p=1p0-------|
|-------3p1p==0-------3p1p==0-------3p1p==0---------3p1p0-|
|---------------------------------------------------------|
|---------------------------------------------------------|
|---------------------------------------------------------|
|---------------------------------------------------------|
|
|       PM--|         PM--|         PM
| E     S   S   E     S   S   E     S   S   +E      E
|---------------------------------------------------------|
|---------------------------------------------------------|
|---------------------------------------------------------|
|-2-------------2-------------2---------5---(5)-----5-----|
|-2-------------2-------------2---------5---(5)-----5-----|
|-0-----0---0---0-----0---0---0-----0---3---(3)-----3-----|


  |-----6-----| |-----6-----|
  S S S S S   S S S S S S   S a Q.         E
|----------------------------------------------|
|-5p3p0---------5p3p0---------3s5----------0---|
|-------4p2p==0-------4p2p==0------------------|
|----------------------------------------------|
|----------------------------------------------|
|----------------------------------------------|
|
|       PM--|         PM--|        PM
| E     S   S   E     S   S     E  S S +E  E
|----------------------------------------------|
|----------------------------------------------|
|----------------------------------------------|
|-2-------------2---------------2----8-(8)-8---|
|-2-------------2---------------2----8-(8)-8---|
|-0-----0---0---0-----0---0-----0--0-6-(6)-6---|


                                                                     \7
         |--3---|   |--3--|    |--3---|   |--3--|   |--3--|
  E S S +E  E   E   E E   E    E  E   E   E E   E   E E   E   Q     +Q
|-3---1-(1)-0---------------------------|---------------------------------|
|---------------3---1-0-----------------|---------------------------------|
|-------------------------2----0--------|---------------------------------|
|---------------------------------3---2-|-0-------------------------------|
|---------------------------------------|---3---1---0---------------------|
|---------------------------------------|-------------3---1---0-----(0)---|
|
|   PM|       PM--|     PM                    PM--|     PM--|   PM
| E S S  E    S   S E   S   S +E    E     E   S   S E   S   S E S S +E  E
|---------------------------------------|---------------------------------|
|---------------------------------------|---------------------------------|
|---------------------------------------|---------------------------------|
|-2------2----------2-------5-(5)---5---|-2---------2---------2---8-(8)-8-|
|-2------2----------2-------5-(5)---5---|-2---------2---------2---8-(8)-8-|
|-0-0-0--0----0---0-0---0---3-(3)---3---|-0---0---0-0---0---0-0-0-6-(6)-6-|


  PM----------------------------------------------|
  |-----6-----| |-----6-----| |-----6-----|  |----6-----|
  S S S S S   S S S S S S   S S S S S S   S  S  S S S S S
|---------------------------------------------------------|
|--------------------------------------------5--5-5-4-4-4-|
|-3-3-3-2-2---2-5-5-5-3-3---3-7-7-7-5-5---5---------------|
|---------------------------------------------------------|
|---------------------------------------------------------|
|---------------------------------------------------------|
|
|       PM--|         PM--|         PM
| E     S   S   E     S   S   E     S   S   +E      E
|---------------------------------------------------------|
|---------------------------------------------------------|
|---------------------------------------------------------|
|-2-------------2-------------2---------5---(5)-----5-----|
|-2-------------2-------------2---------5---(5)-----5-----|
|-0-----0---0---0-----0---0---0-----0---3---(3)-----3-----|


  |-----6-----|  |------6------|
  S S S S S   S  S  S  S S S   S   Q.         S S
|---------------------------------------------------|
|-7-7-7-5-5---5S10-10-10-9-9---9--------------------|
|---------------------------------------------0-0---|
|---------------------------------------------------|
|---------------------------------------------------|
|--------------------------------<12>---------------|
|
|       PM--|            PM--|        PM
| E     S   S    E       S   S     E  S S +E  E
|---------------------------------------------------|
|---------------------------------------------------|
|---------------------------------------------------|
|-2--------------2-----------------2----8-(8)-8-----|
|-2--------------2-----------------2----8-(8)-8-----|
|-0-----0---0----0-------0---0-----0--0-6-(6)-6-----|


                                  \7
   Q         E     E        E     Q.
|-12--------12----12-------12------------------|
|-15b17-----15b17-15pb17---15pb17-0------------|
|----------------------------------------------|
|----------------------------------------------|
|----------------------------------------------|
|----------------------------------------------|
|
|       PM|        PM----|        PM
|  E    S S  E     S     S  E     S  S +E   E
|----------------------------------------------|
|----------------------------------------------|
|----------------------------------------------|
|--2---------2--------------2--------5-(5)-----|
|--2---------2--------------2--------5-(5)-----|
|--0----0-0--0-----0-----0--0-----0--3-(3)-17\-|


   E.    S     +E   E     +S   E.      Q      E.    S     +E   E     +S   E.     Q
|-12----13----(13)-14----(14)-15-----------|-12----13----(13)-14----(14)-15-----------|
|-15b17-16b18-(16)-17b19-(17)-18b20--------|-15b17-16b18-(16)-17b19-(17)-18b20--------|
|--------------------------------------x\--|-------------------------------------x\---|
|--------------------------------------x\--|-------------------------------------x\---|
|------------------------------------------|------------------------------------------|
|------------------------------------------|------------------------------------------|
|
|                                                                                \7
|  E.    S     +E   E     +S   E    S  Q      E.    S     +E   E     +S   E.    +Q
|------------------------------------------|------------------------------------------|
|------------------------------------------|------------------------------------------|
|------------------------------------------|-----------------------------<5>---(<5>)--|
|--2-----3-----(3)--4-----(4)--5-----------|--2-----3-----(3)--4-----(4)-<5>---(<5>)--|
|--2-----3-----(3)--4-----(4)--5-----------|--2-----3-----(3)--4-----(4)--------------|
|--0-----1-----(1)--2-----(2)--3------17\--|--0-----1-----(1)--2-----(2)--------------|


   Q        E     E       E       E     E     E
|-17-------17b19-17------17b19---17----17b19-17------|
|-20b22----20----20b22---20------20b22-20----20b22---|
|----------------------------------------------------|
|----------------------------------------------------|
|----------------------------------------------------|
|----------------------------------------------------|
|
|                         PM---|
|  E     E  E     S    S  S    S  E     E     S    S
|----------------------------------------------------|
|----------------------------------------------------|
|--2-----2--2-----2----2-----------------------------|
|--2-----2--2-----2----2--x-------3-----3-----x----x-|
|--0-----0--0-----0----0--x-------3-----3-----x----x-|
|-------------------------x----0--1-----1-----x----x-|
|
| Gtr III
|  E     E  E     E       E       E     E     E
|----------------------------------------------------|
|----------------------------------------------------|
|----------------------------------------------------|
|-14----14-14----14------14S=====10----10----10------|
|----------------------------------------------------|
|-12----12-12----12------12S======8-----8-----8------|


   a  S  S  S  S  S  S  S  S  S  S  S  S  S  S  S  S     E  S S   E  S S  S S  S  S  S S  S S
|-17h20p17-20p17----17-20p17-20p17----17-20p17-20p17-|-/17--0-0-/17--0-0S15-0--0S17--0-0S17-0-|
|----------------20----------------20----------------|----------------------------------------|
|----------------------------------------------------|----------------------------------------|
|----------------------------------------------------|----------------------------------------|
|----------------------------------------------------|----------------------------------------|
|----------------------------------------------------|----------------------------------------|
|
|                             PM|                                         PM|
|     E     E     E     S  S  S  S  E     E     E        E  E     E  S S  S S  E     E    S S
|----------------------------------------------------|----------------------------------------|
|----------------------------------------------------|----------------------------------------|
|-----7-----7-----7-----7--7-------------------------|---2--2-----2--2-2----------------------|
|-----7-----7-----7-----7--7--x--x--5-----5-----5----|---2--2-----2--2-2--x----3-----3----x-x-|
|-----5-----5-----5-----5--5--x--x--5-----5-----5----|---0--0-----0--0-0--x----3-----3----x-x-|
|-----------------------------x--x--3-----3-----3----|--------------------x-0--1-----1----x-x-|
|
|     E     E     E     E     E     E     E     E        E  E     E  E    E    E     E    E
|----------------------------------------------------|----------------------------------------|
|----------------------------------------------------|----------------------------------------|
|----------------------------------------------------|----------------------------------------|
|----12----14----14----15----14----12----14----12----|--12-14----14-15---14---12----14---12---|
|----------------------------------------------------|----------------------------------------|
|----10----12----12----13----12----10----12----10----|--10-12----12-13---12---10----12---10---|


                      \7
   S  S  S S  E  S S  H                  S   S  S  S  S  S  E   +S   S  S S  S S  E
|--0S17--0-0S19--0-0------------------|---------8----10-----8---(8)\-8--7-5--7-5------|
|---------------------0---------------|----/10----10----10------------------------8---|
|-------------------------------------|-----------------------------------------------|
|-------------------------------------|-----------------------------------------------|
|-------------------------------------|-----------------------------------------------|
|-------------------------------------|-----------------------------------------------|
|
|                     PM-|     PM|                               PM--|
|  E     E    E  S S  S  S  E  S S  E    E      E     E     S S  S   S  E    E    S S
|-------------------------------------|-----------------------------------------------|
|-------------------------------------|-----------------------------------------------|
|--7-----7----7--7-7------------------|--2------2-----2-----2-2-----------------------|
|--7-----7----7--7-7--x--x--5--x-x--5-|--2------2-----2-----2-2--x------3----3----x-x-|
|--5-----5----5--5-5--x--x--5--x-x--5-|--0------0-----0-----0-0--x------3----3----x-x-|
|---------------------x--x--3--x-x--3-|--------------------------x---0--1----1----x-x-|
|
|  E     E    E  E    E     E  E    E    E      E     E     E    E      E    E    E
|-------------------------------------|-----------------------------------------------|
|-------------------------------------|-----------------------------------------------|
|-------------------------------------|-----------------------------------------------|
|-12----14---14-15---14----12-14---12-|-12-----14----14----15---14-----12---14---12---|
|-------------------------------------|-----------------------------------------------|
|-10----12---12-13---12----10-12---10-|-10-----12----12----13---12-----10---12---10---|


   S   S  S  S  S  S  E   +S   S  S S  S S  E
|---------8----10-----8---(8)\-8--7-5--7-5------|
|----/10----10----10------------------------8---|
|-----------------------------------------------|
|-----------------------------------------------|
|-----------------------------------------------|
|-----------------------------------------------|
|
|                          PM--|
|  E      E     E     S S  S   S  E    E    S S
|-----------------------------------------------|
|-----------------------------------------------|
|--7------7-----7-----7-7-----------------------|
|--7------7-----7-----7-7--x---x--5----5----5---|
|--5------5-----5-----5-5--x---x--5----5----5---|
|--------------------------x---x--3----3----3p0-|
|
|  E      E     E     E    E      E    E    E
|-----------------------------------------------|
|-----------------------------------------------|
|-----------------------------------------------|
|-12-----14----14----15---14-----12---14---12---|
|-----------------------------------------------|
|-10-----12----12----13---12-----10---12---10---|


   S     S  S  S  S  S  S  S  S     S  S     S  S     S  E
|-------------------------------------------------------------|
|-------17-17-17-18-17-17-17-------17-------17-------17-------|
|-19b21----------------------19b21----19b21----19b21----19b21r|
|-------------------------------------------------------------|
|-------------------------------------------------------------|
|-------------------------------------------------------------|
|
|                                                             G
|  PM------|                  PM------|
|  E        E     E     E     E        E        E        E
|-------------------------------------------------------------|
|-------------------------------------------------------------|
|-------------------------------------------------------------|
|-----------------3-----3-----------------------3--------3----|
|--3--------3-----3-----3-----3--------3--------3--------3----|
|--1--------1-----1-----1-----1--------1--------1--------1----|
|
|                                                             G
|  E        E     E     E     E        E        E        E
|-------------------------------------------------------------|
|-------------------------------------------------------------|
|-------------------------------------------------------------|
|-10-------10----10----10----10-------10-------10-------10----|
|-------------------------------------------------------------|
|--8--------8-----8-----8-----8--------8--------8--------8----|


   TP          TP
   H           H
|-17----------17------------|
|-20b22-------20b22---------|
|---------------------------|
|---------------------------|
|---------------------------|
|---------------------------|
|
|tr I
|  PM---|      PM---|
|  E    E E E  E    E  E  E
|---------------------------|
|---------------------------|
|---------------------------|
|---------5-5----------5--5-|
|--5----5-5-5--5----5--5--5-|
|--3----3-3-3--3----3--3--3-|
|
|tr II
|  PM---|      PM---|
|  E    E E E  E    E  Q
|---------------------------|
|---------------------------|
|---------------------------|
|---------5-5---------------|
|--5----5-5-5--5----5-------|
|--3----3-3-3--3----3-13\---|


                                   \7
                      ~~~~~~~~
   S   S  S  S  S  S  E   +Q      +Q           E.    S +E   E   +E     E  Q
|---------8----10-----8---(8)-----(8)------|-/10-----8-(8)--7---(7)----8--------|
|----/10----10----10-----------------------|-----------------------------10\----|
|------------------------------------------|------------------------------------|
|------------------------------------------|------------------------------------|
|------------------------------------------|------------------------------------|
|------------------------------------------|------------------------------------|
|
| Gtrs I, II
|                          PM|                                   PM-|
|  E      E     E     S S  S S  E  E   S S     E   E    E   S S  S  S  E  E   E
|------------------------------------------|------------------------------------|
|------------------------------------------|------------------------------------|
|--2------2-----2-----2-2------------------|---7---7----7---7-7-----------------|
|--2------2-----2-----2-2--x----3--3---x-x-|---7---7----7---7-7--x--x--5--5---5-|
|--0------0-----0-----0-0--x----3--3---x-x-|---5---5----5---5-5--x--x--5--5---5-|
|--------------------------x-0--1--1---x-x-|---------------------x--x--3--3---3-|
|
| Gtr III
|  E      E     E     E    E    E  E   E       E   E    E   E    E     E  E   E
|------------------------------------------|------------------------------------|
|------------------------------------------|------------------------------------|
|------------------------------------------|------------------------------------|
|-14-----14----14----14---14S==10-10--10---|--12--14---14--15---14----12-14--12-|
|------------------------------------------|------------------------------------|
|-12-----12----12----12---12S===8--8---8---|--10--12---12--13---12----10-12--10-|


                                    \7
                      ~~~~~~~~
   S   S  S  S  S  S  E   +Q       +Q           E.    S +E   E   +E     E  Q
|---------8----10-----8---(8)------(8)------|-/10-----8-(8)--7---(7)----8----------|
|----/10----10----10------------------------|-----------------------------10\------|
|-------------------------------------------|--------------------------------------|
|-------------------------------------------|--------------------------------------|
|-------------------------------------------|--------------------------------------|
|-------------------------------------------|--------------------------------------|
|
|                          PM-|                                   PM-|     PM-|
|  E      E     E     S S  S  S  E  E   S S     E   E    E   S S  S  S  E  S  S  E
|-------------------------------------------|--------------------------------------|
|-------------------------------------------|--------------------------------------|
|--2------2-----2-----2-2-------------------|---7---7----7---7-7-------------------|
|--2------2-----2-----2-2--x-----3--3---x-x-|---7---7----7---7-7--x--x--5--x--x--5-|
|--0------0-----0-----0-0--x-----3--3---x-x-|---5---5----5---5-5--x--x--5--x--x--5-|
|--------------------------x--0--1--1---x-x-|---------------------x--x--3--x--x--3-|
|
|  E      E     E     E    E     E  E   E       E   E    E   E    E     E  E     E
|-------------------------------------------|--------------------------------------|
|-------------------------------------------|--------------------------------------|
|-------------------------------------------|--------------------------------------|
|-12-----14----14----15---14----12-14--12---|--12--14---14--15---14----12-14----12-|
|-------------------------------------------|--------------------------------------|
|-10-----12----12----13---12----10-12--10---|--10--12---12--13---12----10-12----10-|


                                                       \7
   TP                                  TP
   W                                   H              +H
|-17-------------------------------|--17-------------------------------|
|-17-------------------------------|--17-------------------------------|
|-19b21----------------------------|-(19)------------(19)--------------|
|----------------------------------|-----------------------------------|
|----------------------------------|-----------------------------------|
|----------------------------------|-----------------------------------|
|
|  E     E  E  E    E    E  E  E       E   E  E  E     E     E  E  E
|----------------------------------|-----------------------------------|
|----------------------------------|-----------------------------------|
|----------------------------------|-----------------------------------|
|-12----14-14-15---14---12-14-12---|--12--14-14-15----14----12-14-12---|
|----------------------------------|-----------------------------------|
|-10----12-12-13---12---10-12-10---|--10--12-12-13----12----10-12-10---|
|
|                   PM|                                PM-|
|  E     E  E  S S  S S  E  E  S S     E   E  E  S S   S  S  E  E  S S
|----------------------------------|-----------------------------------|
|----------------------------------|-----------------------------------|
|--2-----2--2--2-2-----------------|---7---7--7--7-7-------------------|
|--2-----2--2--2-2--x----3--3--x-x-|---7---7--7--7-7---x--x--5--5--5---|
|--0-----0--0--0-0--x----3--3--x-x-|---5---5--5--5-5---x--x--5--5--5---|
|-------------------x-0--1--1--x-x-|-------------------x--x--3--3--3p0-|


   S  S  S  S  S  S  E   +H               W
|--------------------------------------|-------------*|
|-------------13-13-15-([15])----------|-------------*|
|-12-12-14-14--------------------------|-------------*|
|--------------------------------------|-------------*|
|--------------------------------------|-------------*|
|--------------------------------------|-------------*|
|
|  E     E     E     E    E    E  E  E    E  E H.
|--------------------------------------|-------------*|
|--------------------------------------|-------------*|
|--------------------------------------|-------------*|
|-10----10----10----10---10---10-10-10-|--5----------*|
|--------------------------------------|--5----------*|
|--8-----8-----8-----8----8----8--8--8-|--3----------*|
|
|  PM---|                 PM--|
|  E     E     E     E    E    E  E  E    Q    H.
|--------------------------------------|-------------*|
|--------------------------------------|-------------*|
|--------------------------------------|-------------*|
|--------------3-----3------------3--3-|-12\---------*|
|--3-----3-----3-----3----3----3--3--3-|-------------*|
|--1-----1-----1-----1----1----1--1--1-|-10\---------*|



Duration Legend
---------------
W - whole; H - half; Q - quarter; E - 8th; S - 16th; T - 32nd; X - 64th; a - acciaccatura
+ - note tied to previous; . - note dotted; .. - note double dotted
Uncapitalized letters represent notes that are staccato (1/2 duration)
Irregular groupings are notated above the duration line
Duration letters will always appear directly above the note/fret number it represents the
duration for.  Duration letters with no fret number below them represent rests.  Multi-
bar rests are notated in the form Wxn, where n is the number of bars to rest for.  Low
melody durations appear below the staff

Tablature Legend
----------------
 h   - hammer-on
 p   - pull-off
 b   - bend
 pb  - pre-bend
 r   - bend release (if no number after the r, then release immediately)
 /\  - slide into or out of (from/to "nowhere")
 s   - legato slide
 S   - shift slide
 - natural harmonic
[n]  - artificial harmonic
n(n) - tapped harmonic
 ~   - vibrato
 tr  - trill
 T   - tap
 TP  - trem. picking
 PM  - palm muting
\n/  - tremolo bar dip; n = amount to dip
 \n  - tremolo bar down
 n/  - tremolo bar up
/n\  - tremolo bar inverted dip
 =   - hold bend; also acts as connecting device for hammers/pulls
 <> - volume swell (louder/softer)
 x   - on rhythm slash represents muted slash
 o   - on rhythm slash represents single note slash

Misc Legend
-----------
 |  - bar
||  - double bar
||o - repeat start
o|| - repeat end
*|  - double bar (ending)
 :  - bar (freetime)
 $  - Segno
 &  - Coda
Tempo markers -  = BPM(8/16=s8/s16), where s8 = swing 8ths, s16 = swing 16ths

Tap to rate this tab
 
# A B C D E F G H I J K L M N O P Q R S T U V W X Y Z