Song name
# A B C D E F G H I J K L M N O P Q R S T U V W X Y Z

Motley Crue - Teaser tab

                             MOTLEY CRUE
                               TEASER


d tuning
DGCFAD


intro
-----------------------------------------|
-----------------------------------------|
---17b~~~~---19-16-----------------------|
-------------------17b-16b-16b-14--------|
-----------------------------------------|
-----------------------------------------|

riff played throughout most of the song
------------------------|
------------------------|
------------------------|
------------------------|
------7-----5---4-------|
--0-0---0-0---0---------|

chorus
---------------------------------------------------------------------|
---------------------------------------------------------------------|
--7----9----17b-17b-17b-17b----7----9----17b-17b-17b-17b----9--------|
--7----9-----------------------7----9-----------------------9--7--2--|
--5----7-----------------------5----7-----------------------7--7--2--|
---------------------------------------------------------------5--0--|


a solo is played


repeat a few times
------------------------|
------------------------|
------------------------|
------------------------|
------7-----5---4-------|
--0-0---0-0---0---------|

chorus is played again

after that its pretty much soloing

peace
Tap to rate this tab
# A B C D E F G H I J K L M N O P Q R S T U V W X Y Z