Song name
# A B C D E F G H I J K L M N O P Q R S T U V W X Y Z

Motley Crue - Without You tab

-------------------------------------------------------------------------------
			     WITHOUT YOU - Motley Crue
-------------------------------------------------------------------------------
Tabbed by: Juan Navarro (georgeguitar)
Email: jdna0615@linuxmail.org

This is a very beautiful song from the Dr. Feelgood album, I heard the song by
first time when I was a kid, but I really liked it, and now I'm still
listening it as in those years.

1989 - Dr. FeelGood
1998 - Greatest Hits
1999 - Live - Entertaiment Or Death (2 CD)

Intro
   F        Dm       F                    Dm      A# A     F    Dm     A#
e|-------------------------------------------------6p5-----------------------|
B|-----6~s8s10-------6~-----8h6p8--------------------------6-----------6~----|
G|-1s5------------------------------------7~---------------------7-----------|
D|---------------------------------------------------------------------------|
A|---------------------------------------------------------------------------|
E|---------------------------------------------------------------------------|

    F                  Dm
Without you there's no change
   F                   Dm
My nights and days are grey
     A#              F       D   A#
If I reached out and touched the rain
			  F	Dm
It just wouldn't feel the same


    F              Dm
Without you I'd be lost
    F                  Dm
I'd slip down from the top
     A#    F   Dm   A#
I'd slide down so low
			F	Dm
Girl you'd never never know...


Pre Chorus
A#
Without you
A
without you
G#               G
A sailor lost at sea
A#          A
Without you woman
G#
The world comes down on me



Chorus
    F                  Dm
Without you in my life
   F                   Dm
I'd slowly wilt and die
     A#      F  D   A#
But with you by my side
			  F	Dm
You're the reason I'm alive
     A#      F  D   A#
But with you in my life
		      F     Dm
You're the reason I'm alive
            A#   F    D  A#
But without you, without you...


Intro


    F                  Dm
Without you, my hope is small
       F         Dm
Let me be me all along
     A#      F    D    A#
You let the fires rage inside
        		 F      Dm
Knowing someday I'd grow strong


Pre Chorus

Chorus


C              G
I could face a mountain
	     A#          F
But I could  never climb alone
C               G 
I could start another day
        A#               F
But how many, just don't know

C                     G
You're the reason the sun shines down
        A#                      F
And the nights, they don't grow cold
C                  G 
Only you that I'll hold when I'm young
         A#         F
Only you as we grow old


Solo

                 A#                A     G#                           G
|----------------------------------------------------------------------------|
|----------------6~----5h6---------------------------------------------------|
|----1s5---------------------------5~----7p5-------7-----7p5-----7--7s9------|
|----------------------------------------------------------------------------|
|----------------------------------------------------------------------------|
|----------------------------------------------------------------------------|

                 A#                A     G#                           G
|----------------------------------------------------------------------------|
|----------------6~----5h6---------------------------------------------------|
|----1s5---------------------------5~----7p5-------7-----7p5-----7--7s9------|
|----------------------------------------------------------------------------|
|----------------------------------------------------------------------------|
|----------------------------------------------------------------------------|

        A#                                                                A
|-------------------------------------------------------------------13s15p13-|
|----------------------------------------------------------------------------|
|-------------------14h15--15s17s15-------------------14---------------------|
|----14h15----------------------------------------------------15-------------|
|----------------------------------------------------------------------------|
|----------------------------------------------------------------------------|


     G                                                G
|----15p13-----------15----15p13---------------------------------------------|
|-------------------------------------------15-------13----------------------|
|----------------------------------------------------------------------------|
|----------------------------------------------------------------------------|
|----------------------------------------------------------------------------|
|----------------------------------------------------------------------------|

    A#                                  A             G#
|---18p17-------------13--13------------18p17h18s20--------------------------|
|------------------------------------------------------------------13-----16~|
|-----------------------------------------------------13~------15------------|
|----------------------------------------------------------------------------|
|----------------------------------------------------------------------------|
|----------------------------------------------------------------------------|

Chorus

| /  slide up
| \  slide down
| h  hammer-on
| p  pull-off
| ~  vibrato
| +  harmonic
| x  Mute note
===============================================================================

+--------------------------------------------------------------------------+
|                                                                          |
| "Cantarle al amor esta bien, puede haber una revolución sin destrucción" |
|                                                                          |
+--------------------------------------------------------------------------+

Tap to rate this tab
# A B C D E F G H I J K L M N O P Q R S T U V W X Y Z