Song name
# A B C D E F G H I J K L M N O P Q R S T U V W X Y Z

Motley Crue - Kickstart My Heart tab

-------------------------------------------------------------------------------
			     "Kickstart My Heart" solo --- Motley Crue
-------------------------------------------------------------------------------

Tabbed by: [travis]
Email: syn_gates_punk14@msn.com


This is the tab for all of the solos in Kickstart My Heart.
In order to do the solo you need a talk box, or you could use
a wah wah pedal, but it'll sound different.


Tuning: (DGCFAD) low to high


Key:
b = bend
h = hammer on
~ = vibrato
p = pull off
.25 = quarter step bend
.5 = half step bend
1 = whole step bend
7p/5p3 = pick once
w = wammy bar
___ = hold bend
() = bring bent note back normal
\ = slide down
/ = slide up



Solo 1
Guitar 1:
                         1          .25                 .5     .25    .25
D|------------------------------------------------------------------------|
A|------------------------------------------------------------------------|
F|-5---------------5----7b----5------5b-----------5---7-7b---7--5b-----5b-|
C|------7~~~~~~~----------------7----------7------------------------7-----|
G|--------------------------------7---------------------------------------|
D|------------------------------------------------------------------------|


               .25                 .25                                
D|---------------------------------------------------------------------|
A|---------------------------------------------------------------------|
F|------5------5b---------5---------5b--------5------5-------5-------5-|
C|-7------7----------7-------7-----------7------7------7-------7-------|
G|---7------7----------7--------7----------7------7------7-------7-----|
D|---------------------------------------------------------------------|

End of Solo 1
++++++++++++++++++++++++++
Solo 2: Do this fast.

D|-17--19-19--20--19-19-19-19--20-20-19-19-22-22-19-19-20-20-19-19-22--0--24-24-|
A|------------------------------------------------------------------------------|
F|------------------------------------------------------------------------------|
C|------------------------------------------------------------------------------|
G|------------------------------------------------------------------------------|
D|------------------------------------------------------------------------------|


D|-0-0-22-22-0-0-20-20-0-0-22--0-0--19-19-0--0-20--19-19-17-15-|
A|-------------------------------------------------------------|
F|-------------------------------------------------------------|
C|-------------------------------------------------------------|
G|-------------------------------------------------------------|
D|-------------------------------------------------------------|


D|-----------------------------------------------------------|
A|-----------------------------------------------------------|
F|-5-----7-----5-----7-----5---5------5----5------5----5-----|
C|-5-----7-----5-----7-----------7------7----7------7----7-7-|
G|---------------------------------7-----------7-------------|
D|-----------------------------------------------------------|

End of Solo 2
++++++++++++++++++++++++++++
Solo 3: This is the solo at the very end of the song where Vince says "Guitar!"
    1                                                                           1.5
D|--------5------------------------------------------------------------------------|
A|-8b-------8-7-5------------------------------------------------------------------|
F|----------------8-7-8-8-7p5----5-7-5----------------------------------------5-7b-|
C|-----------------------------7-------7p5---5------------------------6-7p6h7------|
G|-----------------------------------------7---7p\5p3---3----3---5h/7--------------|
D|----------------------------------------------------5----5-----------------------|

             1.5                                     1
D|----------------------------8h10p8h10----8-10----10b----8------------------|
A|--------------5h8p5-5-8h/10-----------10------------------10p8-8h10p8h10p8-|
F|-5h7p5h7p5-7b--------------------------------------------------------------|
C|---------------------------------------------------------------------------|
G|---------------------------------------------------------------------------|
D|---------------------------------------------------------------------------|

                            2__
D|----------------------------------------------------------------------|
A|----8-----------------------------------------------------------------|
F|-10---9p\7p5-7-5-7---5h7-7b--(7)p5h7p5-7---5--------------------------|
C|-------------------7---------------------7---7-5----------------------|
G|-------------------------------------------------7p\5p3-5---3-------3-|
D|----------------------------------------------------------5----5p3----|

     1____                       1.5     1              1___
D|-20b---(20)p17h20-17h20-17-----------------17-----------------------------|
A|----------------------------20-20b---20b------20-17-----------------------|
F|----------------------------------------------------19b--(19)p17h19p17----|
C|-----------------------------------------------------------------------19-|
G|--------------------------------------------------------------------------|
D|--------------------------------------------------------------------------|

                                         1_____________   Dive down with wammy bar.
D|--------------------------------------------------------------------------------|
A|--------------------------------------------------------------------------------|
F|-17-----------------------------------------------------------------------------|
C|----19p17----17--------------------------------------------------x///xxx///xxxx-|
G|----------19----19p17-15-17-15-17-15-17b~~~~~~~~~~~~~(17)w-------x///xxx///xxxx-|
D|-----------------------------------------------------------------x///xxx///xxxx-|

The x's are pickslides. That's were you here "Kickstart My Heart" in that robot type 
voice, which is the talkbox.

That's all the solos. Pretty advanced.
Please comment and rate it.
[travis]


Tap to rate this tab
# A B C D E F G H I J K L M N O P Q R S T U V W X Y Z