Guitaretab - guitar tabs
Song name
# A B C D E F G H I J K L M N O P Q R S T U V W X Y Z

Motley Crue - Piece Of Your Action tab

#

SONG: 	Piece of your action
BY:	M?TLEY CR?E (the real one with Vince Neil)

NOTE:	This song contains some amazing guitar parts, I've only tabbed
	the intro and the riff that make you recognize the song and I 
	haven't the solo and the chorus (just an idea for the verse)
 	so if any of you has some time it would be greatly appreciated.
	The song is played by Mick Mars in a unusual tuning (for me) 
	but my version must be played in the standard tuning (E/A/D/..).
	Remember that "Too fast for love" is the best cd ever.
E-MAIL:	alexx.@bluewin.ch for any comments, corrections, solo or M?tley tabs.
	
intro:
"""""""

----------------------------------------------------
----------------------------------------------------
----------------------------------------------------
-------------------------------------------------5--
-------------------------------------------------5--
--3--3--3--3--3--3--3--3----3--3--3--3--3--3--3--3--


----------------------------------------------------
----------------------------------------------------
----------------------------------------------------
--5--5----------------------------------------------
--5--5----------------------------------------------
--3--3--3--3--3--3--3--3----3--3--3--3--3--3--3--3--


-------------------------------------------
-------8----6----6--6----4-----------------
-------7----5----5--5----3----------------- repeat this beautiful riff
-------5----3----3--3----1----------------- a few times and listen to the
----------------------------3--3--5--3----- record for a better timing
--3-------------------------------------6--
[ Tab from: http://www.guitaretab.com/m/motley-crue/12988.html ]
Related for Piece Of Your Action tab