Song name
# A B C D E F G H I J K L M N O P Q R S T U V W X Y Z

Motley Crue - Afraid tab

~Drop D~

great song off of generation swine

*=hit 8 times
>=whammy down


---------------------------------------------------------------|
---------------------------------------------------------------|
-14h15-15-15-15-15-6--6-6-6-6-6/8-8-8-8-8--/15h14-14-14-14-14--|
---------------------------------------------------------------|
---------------------------------------------------------------|
---------------------------------------------------------------|
do you, do you wanna bleed?
do you, do you wanna live in vain?

----------------------------------------------------------------|
----------------------------------------------------------------|
-7-7-7-7-7-3-3-3-5-5-5-5-5-5------------------------------------|
----------------------------------------------------------------|
----------------------------------------------------------------|
----------------------------------------------------------------|
its only life...

----------------------------------------------------------------|
----------------------------------------------------------------|
----------------------------------------------------------------|
-0*-3*-0*-5*--------0*-3*-5*-5*---------------------------------|
-0*-3*-0*-5*--------0*-3*-5*-5*---------------------------------|
-0*-3*-0*-5*--------0*-3*-5*-5*---------------------------------|
shes so afraid to love
shes so afraid of hate
whats she runnin from now?

----------------------------------------------------------------|
----------------------------------------------------------------|
----------------------------------------------------------------|
-5--1>----------------------------------------------------------|
-5--1>----------------------------------------------------------|
-5--1>----------------------------------------------------------|
Tap to rate this tab
# A B C D E F G H I J K L M N O P Q R S T U V W X Y Z