Song name
# A B C D E F G H I J K L M N O P Q R S T U V W X Y Z

Motley Crue - I Will Survive tab

Okay this song rocks..and either I'm playing it wrong or the other tab isn't cutting 
this is my guess
 on how the the song goes, solo and all.

Intro - 4x
-----

d-|----------------------------------|-------------------------------------|
a-|----------------------------------|-------------------------------------|
f-|--2-2----------5-4~---x-x--4-5-4~-|--2-2---------5-4~-------------------|
c-|--2-2----------5-4~---x-x--4-5-4~-|--2-2---------5-4~-------------------|
g-|--0-0----0-0-0--------------------|--0-0---0-0-0----------0-3-2-0-------|
d-|----------------------------------|-------------------0-3---------(3b5)-|


Verse - 2x
-----

d-|---------------------------------|--------------------------------------|
a-|---------------------------------|--------------------------------------|
f-|--2-2----------9-7----7/9\7------|-------------9-7----------------------|
c-|--2-2----------7-5----5/7\5------|--3-3--------7-5----------------------|
g-|--0-0----------------------------|--0-0------------------0-3-2-0--------|
d-|---------------------------------|-------------------0-3---------(3b5)--|


Pre-chorus - 1x
----------------------------------------------------------------------------|
                                               P.M------------------x-------|
d-|----------|-----------------|--------------------------------------------|
a-|----------|-----------------|--------------------------------------------|
f-|----------|--14---12---10---|--10--10---12--12-12-12-12-12-12-12-12------|
c-|--3----5--|--14---12---10---|--10--10---12--12-12-12-12-12-12-12-12------|
g-|--3----5--|--12---10---8----|--8---8----10--10-10-10-10-10-10-10-10------|
d-|--1----3--|-----------------|--------------------------------------------|


Chorus - 2x
------

d-|------------------|--------------------------------------|
a-|------------------|--------------------------------------|
f-|--2----5--7----9--|--10--9---7--5---/12------12-13-14----|
c-|--2----5--7----9--|--10--9---7--5---/12------12-13-14----|
g-|--0----3--5----7--|--8---7---5--3---/10------10-11-12----|
d-|------------------|--------------------------------------|


Intro - 1x
-----


Verse - 2x
-----


Pre-chorus - 1x
----------


Chorus - 2x
------


Breakdown -
---------

    P.M-------x  P.M-------x  P.M-------x  P.M-------x  P.M--------------x--|
d-|------------|------------|------------|------------|---------------------|
a-|------------|------------|------------|------------|---------------------|
f-|--14--------|--14--------|--12--------|--10--------|--9-------10---------|
c-|--14-(x16)--|--14-(x16)--|--12-(x16)--|--10-(x16)--|--9-(x8)--10-(x8)----|
g-|--12--------|--12--------|--10--------|--8---------|--7-------8----------|
d-|------------|------------|------------|------------|---------------------|


Solo
----
                                                                    P.H
d-|---------------------------|------------------------------------------|
a-|---------------------------|-----5h8p5h8p5h8p5h8p5--------------------|
f-|--------(2b4)-(4b5)~~-(5b7)|(7b9)-----------------(5b7)-(4b5)---(2b4)-|
c-|-(5b7)~~-------------------|------------------------------------------|
g-|---------------------------|------------------------------------------|
d-|---------------------------|------------------------------------------|

d-|-----------------------------------------------------------------|
a-|-----------------------------------------------------------------|
f-|-(2p0)-2--(2b4)-(2b4)-(2b4)~~-(2b4-4*-4*-4*-4*-r2)--(0h2p0h2)~~--|
c-|------------------------------------HOLD-BEND--------------------|
g-|-----------------------------------------------------------------|
d-|-----------------------------------------------------------------|
                                              P.S
d-|-------------------------------------------------|
a-|-------------------------------------------------|
f-|-(2b4)-(2b4)-(2b4)~~--(2b4r2)--(2p0h2)~~--x\\\\--|
c-|------------------------------------------x\\\\--|
g-|------------------------------------------x\\\\--|
d-|------------------------------------------x\\\\--|


                           *(rapidly tap this part)
d-|--------------------------------------------------|
a-|--6----6------8-----10-------(10h13t15)8x's-------|
f-|--8b10-8b10~~-10b12-12b14~~-----------------------|
c-|--------------------------------------------------|
g-|--------------------------------------------------|
d-|--------------------------------------------------|

d-|---------5----------------------------------------|
a-|--(8b10)---8-7-5---5------------------------------|
f-|-----------------8---8-7-5---8-7-5---5-7-(7b9)~~--|
c-|---------------------------7-------7--------------|
g-|--------------------------------------------------|
d-|--------------------------------------------------|

d-|----------17-17-17----------17-17-17--(20b22)~~---|
a-|--(20b22)-----------(20b22)-----------------------|
f-|--------------------------------------------------|
c-|--------------------------------------------------|
g-|--------------------------------------------------|
d-|--------------------------------------------------|


Chorus - 3x
------

 (Fourth time Ritard)        *End with*

d-|----------------|        d-|------|
a-|----------------|        a-|------|
f-|--10--9--7--5---|3x's    f-|------|
c-|--10--9--7--5---|        c-|---5--|
g-|--8---7--5--3---|        g-|---5--|
d-|----------------|        d-|---3--|


Outro
-----

d-|--------------------------|
a-|--------------------------|
f-|---------------------2-2--|
c-|---------------------2-2--|
g-|------0-3-2-0--------0-0--|
d-|--0-3---------(3b5)-------|


That's all..the solo may not be spot on..but it should give you an idea where to play 
at.  It sounds really flat
 to me which made it hard to learn, more to follow.  Please comment and rate
Tap to rate this tab
# A B C D E F G H I J K L M N O P Q R S T U V W X Y Z