Song name
# A B C D E F G H I J K L M N O P Q R S T U V W X Y Z

Motley Crue - Rocketship tab

Here is my 2nd Crue tab im eventually doing the entire Generation Swine Album so heres 
easiest and first tab from that album

Motley Crue
Generation Swine
Tuning: D


Verse x 3
|--0-0--0-0-0--0--0--0-0--0-0-0--0--0--0-0--0-0-0--0-0-0-2-33-2-33-22------|
|--0-0--0-2-2--2--0--0-0--0-2-2--2--0--0-0--0-2-2--2-2-0-3-33-3-33-33------|
|--0-0--0-2-2--2--0--0-0--0-2-2--2--0--0-0--0-2-2--2-2-0-2-22-2-22-22------|
|--2-2--2-2-2--2--0--2-2--2-2-2--2--0--2-2--2-2-2--2-2-0-0-00-0-00-00------|
|--2-2--2-0-0--0--0--2-2--2-0-0--0--0--2-2--2-0-0--0-0-0-------------------|
|--0-0--0---------0--0-0--0---------0--0-0--0----------0--------------3-2--|
Chorus
|--0-0--0-0-0--------0-0--0-0-0--------0-0--0-0-0--0-0-0-2-33-2-33-22------|
|--0-0--0-2-2--------0-0--0-2-2--------0-0--0-2-2--2-2-0-3-33-3-33-33------|
|--0-0--0-2-2--------0-0--0-2-2--------0-0--0-2-2--2-2-0-2-22-2-22-22------|
|--2-2--2-2-2--------2-2--2-2-2--------2-2--2-2-2--2-2-0-0-00-0-00-00------|
|--2-2--2-0-0--0-----2-2--2-0-0--0-----2-2--2-0-0--0-0-0--------------0----|
|--0-0--0--------3-2-0-0--0--------3-2-0-0--0----------0----------------3-2|

|--0-0--0-0-0--0--0--0-0--0-0-0--------0-0--0-0-0--0-0-0-2-----------------|
|--0-0--0-2-2--2--0--0-0--0-2-2--------0-0--0-2-2--2-2-0-3-----------------|
|--0-0--0-2-2--2--0--0-0--0-2-2--------0-0--0-2-2--2-2-0-2-----------------|
|--2-2--2-2-2--2--0--2-2--2-2-2--------2-2--2-2-2--2-2-0-0-----------------|
|--2-2--2-0-0--0--0--2-2--2-0-0--0-----2-2--2-0-0--0-0-0-------------------|
|--0-0--0---------0--0-0--0--------3-2-0-0--0----------0-------------------|

Thats it. Exact Order and 99.9% correct.  Easy Beginner Song
Tap to rate this tab
 
# A B C D E F G H I J K L M N O P Q R S T U V W X Y Z