Song name
# A B C D E F G H I J K L M N O P Q R S T U V W X Y Z

Motley Crue - White Trash Circus tab

Okey, this isn't the whole song ... I couldn't find out the after the
chorus but I hope this parts help you anyway....


Intro/Main Riff

|------------------------------------------------------------------------|
|------------------------------------------------------------------------|
|-----------------8b-------------8b----------------8b--------------------|
|-------7-7---7--------7-7---7-----------7-7---7---------7-7---7--3-5----|
|-------7-7---7--------7-7---7-----------7-7---7---------7-7---7--3-5----|
|-------5-5---5--------5-5---5-----------5-5---5---------5-5---5--1-3----| x2

Listen to the song much and be sure you get the bend parts right

Vers

|------------x-x---x-x-x----x-x-x-x-------------------------------------|
|------------x-x---x-x-x----x-x-x-x-------------------------------------|
|------------x-x---x-x-x----x-x-x-x--8b---------------------------------|
|-------7-7--x-x---x-x-x----x-x-x-x-------------------------------------|
|-------7-7--x-x---x-x-x----x-x-x-x-------------------------------------|
|-------5-5--x-x---x-x-x----x-x-x-x-------------------------------------| x4


Pre-Chorus
(this is just the easy comp.... couldn't find out the part Mick plays)
|-----------------------------------------------------------------------|
|-----------------------------------------------------------------------|
|-----------------------------------------------------------------------|
|----3---3-3-3----3--3-3--3-3-3---3-3--3-5-5-5---5-5-5-5-5-5-5----------|
|----3---3-3-3----3--3-3--3-3-3---3-3--3-5-5-5---5-5-5-5-5-5-5----------|
|----1---1-1-1----1--1-1--1-1-1---1-1--1-3-3-3---3-3-3-3-3-3-3----------|

Chorus

|-----------------------------------------------------------------------|
|-----------------------------------------------------------------------|
|---------------5-5-----------------------------------------------------|
|-----7-7-7-7---5-5-3--3-3-3--------------------------------------------|
|-----7-7-7-7---3-3-3--3-3-3--------------------------------------------|
|-----5-5-5-5-------1--1-1-1--------------------------------------------| x3


|-----------------------------------------------------------------------|
|-----------------------------------------------------------------------|
|-----------------------------5-----------------------------------------|
|---------5-5----5--7-7--5--7---7-5-7b----------------------------------|
|-------------7---------------------------------------------------------|
|-----------------------------------------------------------------------| x2

Main Riff x2
( didn't find out the bends here )

Vers 2 (Comp x4)

Pre-Chorus

Chorus (Comp x3)

Some middle part

Pre-Chorus

Chorus x2 (Comp x7)
Tap to rate this tab
# A B C D E F G H I J K L M N O P Q R S T U V W X Y Z