Song name
# A B C D E F G H I J K L M N O P Q R S T U V W X Y Z

Motley Crue - This Aint A Love Song tab

Hey everybody, I realized that there werent any tabs for this amazing song by motley 
So I figured id put the riffs I got from the song up here.
Its only the main structure of the riffs, u gotta figure out timing but the main thing 
there ;) rock on, motley crue for life!!


             Main Riff
             E         E  E  E  E  E  E  E     E  E  E  E  E  E  E  E
D||-------|---------------------------------|--------------------------|
A||-------|---------------------------------|--------------------------|
F||-------|---------------------------------|--------------------------|
C||-------|--7---------8--9-----9--8--7-----|--7--8--9-----9--7--4-----|
G||-------|--7---------8--9-----9--8--7-----|--7--8--9-----9--7--4-----|
D||-------|---------------------------------|--------------------------|


  Verses
         PM       PM       PM       PM
  E      E  E  E  E  E  E  E     E  E  E  E  Q      E  E
------------------------------|-----------------------------|
------------------------------|-----------------------------|
------------------------------|-----------------------------|
--4---------4--4-----4--4-----|--4--4----4------------------|
--4---------4--4-----4--4-----|--4--4----4-----2br----0-----|
--2------0--2--2--0--2--2--0--|--2--2-0--2--0------------2--|

  Pre chorus                           Chorus
  Q          Q    Q    Q               E      E  E   E  E  E  E   E
----------------------------|-------|--------------------------------|
----------------------------|-------|--------------------------------|
--6----------5----4----3----|-------|--------------------------------|
----------------------------|-------|------------7b-----------7b-----|
----------------------------|-------|--7------9------9--7--9------9--|
----------------------------|-------|--------------------------------|


  E  E  E   E  E  E  E  E     E  E  E  E  H
---------------------------|-----------------------|
---------------------------|-----------------------|
---------------------------|-----------------------|
--------7b-----7--8--9-----|--9--8--7--------------|
--7--9------9--7--8--9-----|--9--8--7--------------|
---------------------------|-----------------------|


  E  E  E   E  E  E  E   E     W
----------------------------|-------------------|
----------------------------|-------------------|
----------------------------|--9----------------|
--------7b-----------7b-----|--9----------------|
--7--9------9--7--9------9--|--7----------------|
----------------------------|-------------------|


  Solo riff
  PM        PM PM   PM PM PM PM
  E         E  Q    E  E  E  E     E  E
-------------------------|--------||
-------------------------|--------||
-------------------------|--2-----||
--4--4--4----4--4--4--4--|--2--4--||
--4--4--4----4--4--4--4--|--0--4--||
--0--2--2----0--0--2--2--|-----2--||

Figure the solos out by yourself ;)
Tap to rate this tab
# A B C D E F G H I J K L M N O P Q R S T U V W X Y Z